» » »

Nirvana, Lithium Tabs (ver.3)

Artists:  A B C D E F G H I J K L M N O P Q R S T U V W X Y Z # 

Lithium Tabs (ver.3)

Nirvana Tabs
Rating:
0/5 (0 votes)
Lithium lessons Tabs too difficult? Try these video lessons and learn fast
                band-nirvana
song-lithium

intro/verse ("Im so happy cuz today i found my friends.........")
-----------------------------------------------------------
-----------------------------------------------------------
--------------6---------------5--------7-------4---7-------
--2--------------------7----5---------7------4----7--------
--2-----6---4--------7------3----3---5---5---2---5---------
--0-0-4----------0-5---------------------------------------

chorus ("yeah yeah yyyeeeaaahh......")

-----------------------------------------------------------
-----------------------------------------------------------
----------------6-6-6---------5-5--7-7-7-7--4-4--7-7-7-7---
--2-2-2--6-6-6--6-6-6--7-7-7--5-5--7-7-7-7--4-4--7-7-7-7---
--2-2-2--6-6-6--4-4-4--7-7-7--3-3--5-5-5-5--2-2--5-5-5-5---
--0-0-0--4-4-4---------5-5-5-------------------------------


bridge ("I love you im not gonna crack........")

-----------------------------------------------------------
-----------------------------------------------------------
---------5-5-0---------5-5-5-5---------7-7-7-7-7-7---------
--7-7-0--5-5-0--7-7-0--5-5-5-5---then--7-7-7-7-7-7--7-7-7-7
--7-7-0--3-3-0--7-7-0--3-3-3-3---------5-5-5-5-5-5--7-7-7-7
--5-5-0---------5-5-0-------------------------------5-5-5-5
            
Submit corrections

comments powered by Disqus
↑ Back to top | Nirvana Tabs for Lithium. Lyrics for acoustic guitar and electric guitar. Tablatures and chords are parodies/interpretations of the original songs. You may use it for private study, scholarship, research or language learning purposes only