» » »

Jesus Doesnt Want Me For A Sunbeam Bass tabs (ver.3)

Artists:  A B C D E F G H I J K L M N O P Q R S T U V W X Y Z # 

Jesus Doesnt Want Me For A Sunbeam Bass tabs (ver.3)

Nirvana
Rating:
0/5 (0 votes)

Tabs too difficult? Try these video lessons and learn fast.
                (Live)
This is Nirvana's cover of a song from a band in Scotland Called The Vaselines. This is 
What Krist Novoselic plays Live at the Paramount

Standard Tuning
E,A,D,G

Legend:
h=Hammer On
/=Slide Up Neck
~=Sustain Note

Kurt Plays the first verse solo. Then Dave and Krist come in one the
Pre-Chorus.

Pre-Chorus
G|---------------------------------|
D|---------------------------------|
A|-0-0-0-0-0-0-0-0-0-0-0-0-0-0-0-0-|
E|---------------------------------|

Chorus
G|------------------------------------------------------------------|
D|2--2-2--2-2h4-------------2--2-2--2-2h4-------------2--2-2--2-2h4-|
A|-------------5--5-5--5-5-0-------------5--5-5--5-5-0--------------|
E|------------------------------------------------------------------|

G|----------------------------------------------|
D|--------------7-------------------------------|
A|5--5-5--5-5-0---------------------------------|
E|--------------5-5-5-5-5-5-5-5-5-5-5-5-5-5-5-5-|

Verse 2
G|-----------------------------------------------------------------------|
D|-2--2-2--2-4-2--0--0-0--0-0h2--------------------------0h2--2-2--2-4-2-|
A|-----------------------------0--0-0--0-4-5--0--0-0--0-0----------------|
E|-----------------------------------------------------------------------|

G|-------------------------------------------------------------------|
D|0--0-0-0h2----------------------------2--2-2--2-4-2--0--0-0--0-0h2-|
A|----------0--0-0--0h5--0--0-0--0-0-0-------------------------------|
E|-------------------------------------------------------------------|

G|----------------------------------------------------------|
D|-----------------------------2--2-2--2-4-2--0--0-0--0-0-0-|
A|0--0-0--0-0-5--0--0-0--0-0-0------------------------------|
E|----------------------------------------------------------|

Pre-Chorus
G|---------------------------------|
D|---------------------------------|
A|-0-0-0-0-0-0-0-0-0-0-0-0-0-0-0-0-|
E|---------------------------------|

Chorus
G|------------------------------------------------------------------|
D|2--2-2--2-2h4-------------2--2-2--2-2h4-------------2--2-2--2-2h4-|
A|-------------5--5-5--5-5-0-------------5--5-5--5-5-5--------------|
E|------------------------------------------------------------------|

G|----------------------------------------------|
D|------------7-7-------------------------------|
A|5--5-5--5-5-----------------------------------|
E|--------------5-5-5-5-5-5-5-5-5-5-5-5-5-5-5-5-|

Verse 3(During Kurt's solo)
G|------0------------------------------------------------------------------|
D|-2--2-2-/7-7-6--0--0-0--0-2-----------------------------2--2-2--2-/7-7-6-|
A|---------------------------4-0--0-0--0h5--0--0-0--0-4-5------------------|
E|-------------------------------------------------------------------------|

G|-----------------------------------------|
D|-0--0-0--0-2--------------7--7--7--7-7-7-|
A|------------4-0--0-0--0h5--00-00-00-0-0--|
E|-----------------------------------------|

Chorus
G|------------------------------------------------------------------|
D|2--2-2--2-2h4-------------2--2-2--2-2h4-------------2--2-2--2-2h4-|
A|-------------5--5-5--5-5-0-------------5--5-5--5-5-5--------------|
E|------------------------------------------------------------------|

G|----------------------------------------------|
D|------------7-7-------------------------------|
A|5--5-5--5-5-----------------------------------|
E|--------------5-5-5-5-5-5-5-5-5-5-5-5-5-5-5-5-|

Verse 4
G|---------------------------------------------------------|
D|-2--2-2--2-2-2--0--0-0--0-0-0----------------------------|
A|------------------------------0--0-0--0-5--0--0-0--0-0-0-|
E|---------------------------------------------------------|

G|---------------------------------------------------------|
D|-2--2-2--2-2-2--0--0-0--0-0-0----------------------------|
A|------------------------------0--0-0--0-5--0--0-0--0-0-0-|
E|---------------------------------------------------------|

G|---------------------------------------------------------|
D|-2--2-2--2-2-2--0--0-0--0-0-0----------------------------|
A|------------------------------0--0-0--0-5--0--0-0--0-0-0-|
E|---------------------------------------------------------|

G|------------------------------|
D|-2--2-2--2-2-2--0--0-0--0-0-0-|
A|------------------------------|
E|------------------------------|

Pre-Chorus
G|---------------------------------|
D|---------------------------------|
A|-0-0-0-0-0-0-0-0-0-0-0-0-0-0-0-0-|
E|---------------------------------|

Chorus-Outro
G|------------------------------------------------------------------|
D|2--2-2--2-2h4-------------2--2-2--2-2h4-------------2--2-2--2-2h4-|
A|-------------5--5-5--5-5-0-------------5--5-5--5-5-0--------------|
E|------------------------------------------------------------------|

G|------------------------------------------------------------------|
D|-------------2--2-2--2-2h4-------------2--2-2--2-2h4--------------|
A|5--5-5--5-5-0-------------5--5-5--5-5-0-------------5--5-5--5-5-0-|
E|------------------------------------------------------------------|

G|-----------------------------|
D|2--2-2-2-2h4--------------7~-|
A|------------5--5-5--5-5-0----|
E|-----------------------------|

THE END
            
Tabs too difficult? Try these video lessons and learn fast.




comments powered by Disqus
↑ Back to top | Tablatures and chords are parodies/interpretations of the original songs. You may use it for private study, scholarship, research or language learning purposes only