>
 >
Jesus Doesnt Want Me For A Sunbeam 1

Jesus Doesnt Want Me For A Sunbeam 1 Guitar Tabs

Nirvana - Jesus Doesnt Want Me For A Sunbeam 1 chords, tabs, tablatures, lyrics

Guitar lessons | Add/correct | Request | Top 50 tabs Artists:  A B C D E F G H I J K L M N O P Q R S T U V W X Y Z 0-9

Jesus Doesnt Want Me For A Sunbeam 1 Guitar Tabs – Nirvana

CD, Sheet music, Poster

Do you like Jesus Doesnt Want Me For A Sunbeam 1? Share with your friends now
Tabs
#------------------------------------------------------------------------------##

This tab is arranged for one guitar and nearly 100% correct!!!
Hope you have fun!

written by Bobschmalli


  Q=115

Intro:

  Q.   E  E  E E E   Q.   E  E  E E E   Q  E E  E  E E E    Q.   E  E  E E E
|-0----0-(0)-0-0-0-|-0----0-(0)-0-0-0-|------------------|-------------------|
|-0----0-(0)-0-0-0-|-3----3-(3)-3-3-0-|------2-(2)-2-3-2-|-(2)---2-(2)-2-3-0-|
|----------------0-|-2----2-(2)-2-2-0-|----2-------2-2-2-|-(2)---2-(2)-2-2-0-|
|-2----2-(2)-2-2-0-|-0----0-(0)---0-0-|-2----------2-2-2-|-(2)---2-(2)-2-2-0-|
|-2------------2-0-|----------------0-|-0----------------|--0----------------|
|-0------------0---|------------------|------------------|-------------------|


  Q.   E  Q   E E Q.   E  Q   E E Q.   E  E  E E E  E  Q  E  E  E E E
|-----------------0----0-(0)--0-0----------------------------------------|
|------0-(0)----0-3----3-(3)--3-0-2----2-(2)-----3-(2)-2-----------------|
|-----------------2----2-(2)--2---2----------2-2-2-(2)-2--2-(2)-2--------|
|------2-(2)----2-0----0-(0)--0---2-------------------------------2-0----|
|-2-------------------------------0--------------------------------------|
|-0-----------0----------------------------------------------------------|


Verse 1:

  Q  E E Q  E E Q  E E  E  E E E Q.   E  E  E E E  Q   E E E E E E
|---------------------------------------------------------------------|
|--------------------3-(3)-3--------------------2-(2)-----------------|
|---------------2--2-2-(2)-2---0------2-(2)-2-2-2-(2)----2-----2------|
|---------------0--0---------0---2-------2-------------2-------2------|
|------2------0------------------0-----------------0-------0-0---0----|
|-0--0---0--0---------------------------------------------------------|


  Q  Q  Q  E E Q  E E  E  E E E Q  E E  E  E Q  Q  E E  E  E E E
|-------------------------------------------------------------------|
|--------------3----3-(3)--------------------3--2-------------------|
|--------------2----2-(2)-2---0------2-(2)---2--2----2-(2)---2------|
|--------------0--0---------0------2-------2----2----2-(2)---2------|
|------------0------------------0-------0----------0----0--0---0----|
|-0--0--0--0--------------------------------------------------------|


  Q  Q  E E E E Q  E E  E  E E E Q  E E  E  E Q  Q  E E  E  E E E
|--------------------------------------------------------------------|
|--------------------3-(3)------------2-(2)-----------2-(2)----------|
|---------------2--2-2-(2)---2--------2-(2)---2-------2-(2)---2------|
|-------------0-0-------0--0-0-0-2--2---------2--2--2---------2------|
|-----------2------------------0-0----------0----0-------0--0---0----|
|-0--0--0-0----------------------------------------------------------|


  Q  E E  E  E E E Q  E E  E  E E E Q  E E  E  E E E Q  E E E E E E
|----------------------------------------------------------------------|
|-----------------------3-(3)------------2-(2)---3p2-2----------2-0----|
|------------------2----2-(2)-2---0------2-(2)---2---2----2-2-2-2-0----|
|----------------0----0---------0---2--2-------2-----2----2-2-2-2-0----|
|------2-(2)------------------------0-------0-----------0-0-0-0-0------|
|-0--0-------0-0-------------------------------------------------------|

Chorus:

  Q  E E  E  E E E Q  E E  E  E E E Q  E E  E  E E E Q  E E  E  E E E
|-0--0-0-(0)-0-0-0-0--0-0-(0)h2-0-0-0--0-0-(0)-0-0-0-0--0-0-(0)h2-0-0----|
|-0--0-0-(0)-0-0-0-3--3-3-(3)-3-3-0-0--0-0-(0)-0-0-0-3--3-3-(3)-3-3-0----|
|----------------0-2--2-2-(2)-2-2-0----------------0-2--2-2-(2)-2-2-0----|
|-2--2-2-(2)-2-2-0-0--0-0-(0)-0-0-0-2--2-2-(2)-2-2-0-0--0-0-(0)-0-0-0----|
|-2--2-2-(2)-2-2-0----------------0-2--2-2-(2)-2-2-0----------------0----|
|-0--0-0-(0)-0-0--------------------0--0-0-(0)-0-0-----------------------|


  Q  E E  E  E E E   Q  E E  E  E E E Q  E E  E  E Q  Q   E E  E  E E E
|-0--0-0-(0)-0-0-0-|-0--0-0-(0)h2-0-0-0--0-0-(0)-0-0--0-|-0-0-(0)-0-0-0---|
|-0--0-0-(0)-0-0-0-|-3--3-3-(3)-3-3-0-2--2-2-(2)-2h3--2-|-2-2-(2)-2-2-0---|
|----------------0-|-2--2-2-(2)-2-2-0-2--2-2-(2)-2-2--2-|-2-2-(2)-2-2-0---|
|-2--2-2-(2)-2-2-0-|-0--0-0-(0)-0-0-0-2--2-2-(2)-2-2--2-|-2-2-(2)-2-2-0---|
|-2--2-2-(2)-2-2-0-|----------------0-0--0-0-(0)-0-0--0-|-0-0-(0)-0-0-0---|
|-0--0-0-(0)-0-0---|------------------------------------|-----------------|

Verse 2:

  Q  E E E E E E Q  E E  E  E E E Q  E E  E  E E  E  Q  E E  E  E E E
|------------------------------------------------------------------------|
|---------------------3-(3)-3---0------2-(2)---3----------2-(2)----------|
|----------------2--2-2-(2)-2---0------2-(2)---2-(2)------2-(2)---2------|
|----------------0--0---------0------2------------------2---------2------|
|------2---2---4------------------0----------0-------0-------0--0---0----|
|-0--0---0---0-----------------------------------------------------------|


  q  E  E  E E E E Q  E E  E  E Q  Q.   E  Q   Q  Q  E E  E  E E E
|---------------------------------------------------------------------|
|-----------------------3-(3)-3---------2-(2)--3-------2-(2)----------|
|------------------2--2-2-(2)-2-0-------2-(2)--2--2----2-(2)---2------|
|----------------0-0--0---------0--2--------------2--2----------------|
|-2--2-(2)-2-2-2-------------------0--------------0--0----0--0---0----|
|-0--0-(0)-0-0-0------------------------------------------------------|


  Q  E E  E  E E E Q  E E  E  E Q  Q  E E  E  E E E Q  E E  E  E E E
|-----------------------------------------------------------------------|
|-----------------------3-(3)---3------------------------2-(2)---2------|
|------------------2--2-2-(2)---2-------2-(2)---2--------2-(2)---2------|
|------2-(2)-------0-------0--0----2--2-------2---2-2--2-------2---2----|
|------------2-2-4-----------------0----------------0-------------------|
|-0--0------------------------------------------------------------------|


  Q.   E  E  E E E Q  E E E E E E Q  E E  E  E E E  E  E E E E E Q
|---------------------------------------------------------------------|
|-------------------------------3------2-(2)-2-3-2-(2)-2-2-2-2-2-2----|
|------------------2----2---2---2-2----2-(2)-2-2-2-(2)-2-2-2-2-2-2----|
|------------------0--0-0-0---0---2--2-2-(2)-2-2-2-(2)-2-2-2-2-2-2----|
|-2----2-(2)---2-4----------------0--0-----------------0-0-0-0-0-0----|
|-0----0-(0)-0--------------------------------------------------------|

Chorus 2:

  Q  E E  E  E E E   Q  E E  E  E E E   Q  E E  E  E E E   Q  E E  E  E E E
|-0--0-0-(0)-0-0-0-|-0--0-0-(0)h2-0-0-|-0--0-0-(0)-0-0-0-|-0--0-0-(0)h2-0-0-|
|-0--0-0-(0)-0-0-0-|-3--3-3-(3)-3-3-0-|-0--0-0-(0)-0-0-0-|-3--3-3-(3)-3-3-0-|
|----------------0-|-2--2-2-(2)-2-2-0-|----------------0-|-2--2-2-(2)-2-2-0-|
|-2--2-2-(2)-2-2-0-|-0--0-0-(0)-0-0-0-|-2--2-2-(2)-2-2-0-|-0--0-0-(0)-0-0-0-|
|-2--2-2-(2)-2-2-0-|----------------0-|-2--2-2-(2)-2-2-0-|----------------0-|
|-0--0-0-(0)-0-0---|------------------|-0--0-0-(0)-0-0---|------------------|


  Q  E E  E  E E E   Q  E E  E  E E E Q  E E  E  E Q  Q  E E  E  E E E
|-0--0-0-(0)-0-0-0-|-0--0-0-(0)h2-0-0-0--0-0-(0)-0-0--0--0-0-(0)-0-0-0---|
|-0--0-0-(0)-0-0-0-|-3--3-3-(3)-3-3-0-2--2-2-(2)-2h3--2--2-2-(2)-2-2-0---|
|----------------0-|-2--2-2-(2)-2-2-0-2--2-2-(2)-2-2--2--2-2-(2)-2-2-0---|
|-2--2-2-(2)-2-2-0-|-0--0-0-(0)-0-0-0-2--2-2-(2)-2-2--2--2-2-(2)-2-2-0---|
|-2--2-2-(2)-2-2-0-|----------------0-0--0-0-(0)-0-0--0--0-0-(0)-0-0-0---|
|-0--0-0-(0)-0-0---|-----------------------------------------------------|

Interlude:

  Q.   E  E  E E E   Q.   E  E  E E E   Q  E E  E  E Q    Q  E E  E  E E E
|-0----0-(0)-0-0-0-|-0----0-(0)-0-0-0-|-0--0-0-(0)-0-0--|-0--0-0-(0)-0-0-0-|
|-0----0-(0)-0-0-0-|-3----3-(3)-3-3-0-|-2--2-2-(2)-2h3--|-2--2-2-(2)-2-2-0-|
|----------------0-|-2----2-(2)-2-2-0-|-2--2-2-(2)-2-2--|-2--2-2-(2)-2-2-0-|
|-2----2-(2)-2-2-0-|-0----0-(0)---0-0-|-2--2-2-(2)-2-2--|-2--2-2-(2)-2-2-0-|
|-2------------2-0-|----------------0-|-0--0-0-(0)-0-0--|-0--0-0-(0)-0-0-0-|
|-0------------0---|------------------|-----------------|------------------|


  Q.   E  E  E E E   Q.   E  E  E E E   Q  E E  E  E Q    Q  E E  E  E E E
|-0----0-(0)-0-0-0-|-0----0-(0)-0-0-0-|-0--0-0-(0)-0-0--|-0--0-0-(0)-0-0-0-|
|-0----0-(0)-0-0-0-|-3----3-(3)-3-3-0-|-2--2-2-(2)-2h3--|-2--2-2-(2)-2-2-0-|
|----------------0-|-2----2-(2)-2-2-0-|-2--2-2-(2)-2-2--|-2--2-2-(2)-2-2-0-|
|-2----2-(2)-2-2-0-|-0----0-(0)---0-0-|-2--2-2-(2)-2-2--|-2--2-2-(2)-2-2-0-|
|-2------------2-0-|----------------0-|-0--0-0-(0)-0-0--|-0--0-0-(0)-0-0-0-|
|-0------------0---|------------------|-----------------|------------------|

Chorus:

  Q  E E  E  E E E   Q  E E  E  E E E   Q  E E  E  E E E   Q  E E  E  E E E
|-0--0-0-(0)-0-0-0-|-0--0-0-(0)h2-0-0-|-0--0-0-(0)-0-0-0-|-0--0-0-(0)h2-0-0-|
|-0--0-0-(0)-0-0-0-|-3--3-3-(3)-3-3-0-|-0--0-0-(0)-0-0-0-|-3--3-3-(3)-3-3-0-|
|----------------0-|-2--2-2-(2)-2-2-0-|----------------0-|-2--2-2-(2)-2-2-0-|
|-2--2-2-(2)-2-2-0-|-0--0-0-(0)-0-0-0-|-2--2-2-(2)-2-2-0-|-0--0-0-(0)-0-0-0-|
|-2--2-2-(2)-2-2-0-|----------------0-|-2--2-2-(2)-2-2-0-|----------------0-|
|-0--0-0-(0)-0-0---|------------------|-0--0-0-(0)-0-0---|------------------|


  Q  E E  E  E E E   Q  E E  E  E E E   Q  E E  E  E Q    Q  E E  E  E E E
|-0--0-0-(0)-0-0-0-|-0--0-0-(0)h2-0-0-|-0--0-0-(0)-0-0--|-0--0-0-(0)-0-0-0-|
|-0--0-0-(0)-0-0-0-|-3--3-3-(3)-3-3-0-|-2--2-2-(2)-2h3--|-2--2-2-(2)-2-2-0-|
|----------------0-|-2--2-2-(2)-2-2-0-|-2--2-2-(2)-2-2--|-2--2-2-(2)-2-2-0-|
|-2--2-2-(2)-2-2-0-|-0--0-0-(0)-0-0-0-|-2--2-2-(2)-2-2--|-2--2-2-(2)-2-2-0-|
|-2--2-2-(2)-2-2-0-|----------------0-|-0--0-0-(0)-0-0--|-0--0-0-(0)-0-0-0-|
|-0--0-0-(0)-0-0---|------------------|-----------------|------------------|

Verse 3:

  Q  E E E E E E   Q  E E  E  E E E   Q  E E  E  E E  E    Q  E E  E  E E E
|----------------|------------------|--------------------|------------------|
|----------------|------3-(3)-3---0-|------2-(2)---3-----|------2-(2)-------|
|----------------|-2--2-2-(2)-2---0-|------2-(2)---2-(2)-|------2-(2)---2---|
|----------------|-0--0---------0---|----2---------------|----2---------2---|
|------2---2---4-|------------------|-0----------0-------|-0-------0--0---0-|
|-0--0---0---0---|------------------|--------------------|------------------|


  q  E  E  E E E E   Q  E E  E  E Q    Q.   E  Q   Q    Q  E E  E  E E E
|------------------|-----------------|----------------|------------------|
|------------------|------3-(3)-3----|------2-(2)--3--|------2-(2)-------|
|------------------|-2--2-2-(2)-2-0--|------2-(2)--2--|-2----2-(2)---2---|
|----------------0-|-0--0---------0--|-2--------------|-2--2-------------|
|-2--2-(2)-2-2-2---|-----------------|-0--------------|-0--0----0--0---0-|
|-0--0-(0)-0-0-0---|-----------------|----------------|------------------|


  Q  E E  E  E E E   Q  E E  E  E Q    Q  E E  E  E E E   Q  E E  E  E E E
|------------------|-----------------|------------------|------------------|
|------------------|------3-(3)---3--|------------------|------2-(2)---2---|
|------------------|-2--2-2-(2)---2--|------2-(2)---2---|------2-(2)---2---|
|------2-(2)-------|-0-------0--0----|-2--2-------2---2-|-2--2-------2---2-|
|------------2-2-4-|-----------------|-0----------------|-0----------------|
|-0--0-------------|-----------------|------------------|------------------|


  Q.   E  E  E E E   Q  E E E E E E   Q  E E  E  E E E    E  E E E E E Q
|------------------|----------------|------------------|------------------|
|------------------|--------------3-|------2-(2)-2-3-2-|-(2)-2-2-2-2-2-2--|
|------------------|-2----2---2---2-|-2----2-(2)-2-2-2-|-(2)-2-2-2-2-2-2--|
|------------------|-0--0-0-0---0---|-2--2-2-(2)-2-2-2-|-(2)-2-2-2-2-2-2--|
|-2----2-(2)---2-4-|----------------|-0--0-------------|-----0-0-0-0-0-0--|
|-0----0-(0)-0-----|----------------|------------------|------------------|

Chorus:

  Q  E E  E  E E E   Q  E E  E  E E E   Q  E E  E  E E E   Q  E E  E  E E E
|-0--0-0-(0)-0-0-0-|-0--0-0-(0)h2-0-0-|-0--0-0-(0)-0-0-0-|-0--0-0-(0)h2-0-0-|
|-0--0-0-(0)-0-0-0-|-3--3-3-(3)-3-3-0-|-0--0-0-(0)-0-0-0-|-3--3-3-(3)-3-3-0-|
|----------------0-|-2--2-2-(2)-2-2-0-|----------------0-|-2--2-2-(2)-2-2-0-|
|-2--2-2-(2)-2-2-0-|-0--0-0-(0)-0-0-0-|-2--2-2-(2)-2-2-0-|-0--0-0-(0)-0-0-0-|
|-2--2-2-(2)-2-2-0-|----------------0-|-2--2-2-(2)-2-2-0-|----------------0-|
|-0--0-0-(0)-0-0---|------------------|-0--0-0-(0)-0-0---|------------------|


  Q  E E  E  E E E   Q  E E  E  E E E   Q  E E  E  E E E   Q  E E  E  E E E
|-0--0-0-(0)-0-0-0-|-0--0-0-(0)h2-0-0-|-0--0-0-(0)-0-0-0-|-0--0-0-(0)h2-0-0-|
|-0--0-0-(0)-0-0-0-|-3--3-3-(3)-3-3-0-|-0--0-0-(0)-0-0-0-|-3--3-3-(3)-3-3-0-|
|----------------0-|-2--2-2-(2)-2-2-0-|----------------0-|-2--2-2-(2)-2-2-0-|
|-2--2-2-(2)-2-2-0-|-0--0-0-(0)-0-0-0-|-2--2-2-(2)-2-2-0-|-0--0-0-(0)-0-0-0-|
|-2--2-2-(2)-2-2-0-|----------------0-|-2--2-2-(2)-2-2-0-|----------------0-|
|-0--0-0-(0)-0-0---|------------------|-0--0-0-(0)-0-0---|------------------|


  Q  E E  E  E E E   Q  E E  E  E E E   Q  E E  E  E E E   Q  E E  E  E E E
|-0--0-0-(0)-0-0-0-|-0--0-0-(0)h2-0-0-|-0--0-0-(0)-0-0-0-|-0--0-0-(0)h2-0-0-|
|-0--0-0-(0)-0-0-0-|-3--3-3-(3)-3-3-0-|-0--0-0-(0)-0-0-0-|-3--3-3-(3)-3-3-0-|
|----------------0-|-2--2-2-(2)-2-2-0-|----------------0-|-2--2-2-(2)-2-2-0-|
|-2--2-2-(2)-2-2-0-|-0--0-0-(0)-0-0-0-|-2--2-2-(2)-2-2-0-|-0--0-0-(0)-0-0-0-|
|-2--2-2-(2)-2-2-0-|----------------0-|-2--2-2-(2)-2-2-0-|----------------0-|
|-0--0-0-(0)-0-0---|------------------|-0--0-0-(0)-0-0---|------------------|


  Q  E E  E  E E E   Q  E E  E  E E E   Q  E E  E  E Q    Q  E E  E  E E E
|-0--0-0-(0)-0-0-0-|-0--0-0-(0)h2-0-0-|-0--0-0-(0)-0-0--|-0--0-0-(0)-0-0-0-|
|-0--0-0-(0)-0-0-0-|-3--3-3-(3)-3-3-0-|-2--2-2-(2)-2h3--|-2--2-2-(2)-2-2-0-|
|----------------0-|-2--2-2-(2)-2-2-0-|-2--2-2-(2)-2-2--|-2--2-2-(2)-2-2-0-|
|-2--2-2-(2)-2-2-0-|-0--0-0-(0)-0-0-0-|-2--2-2-(2)-2-2--|-2--2-2-(2)-2-2-0-|
|-2--2-2-(2)-2-2-0-|----------------0-|-0--0-0-(0)-0-0--|-0--0-0-(0)-0-0-0-|
|-0--0-0-(0)-0-0---|------------------|-----------------|------------------|

Extro:

  Q.   E  E  E E E   Q.   E  E  E E E   Q  E E  E  E E E    Q.   E  E  E E E
|-0----0-(0)-0-0-0-|-0----0-(0)-0-0-0-|------------------|-------------------|
|-0----0-(0)-0-0-0-|-3----3-(3)-3-3-0-|------2-(2)-2-3-2-|-(2)---2-(2)-2-3-0-|
|----------------0-|-2----2-(2)-2-2-0-|----2-------2-2-2-|-(2)---2-(2)-2-2-0-|
|-2----2-(2)-2-2-0-|-0----0-(0)---0-0-|-2----------2-2-2-|-(2)---2-(2)-2-2-0-|
|-2------------2-0-|----------------0-|-0----------------|--0----------------|
|-0------------0---|------------------|------------------|-------------------|


  Q.   E  Q   E E   Q.   E  Q   E E   Q.  E  E  Q  Q    W
|-----------------|-0----0-(0)--0-0-|-----------------|------|
|------0-(0)----0-|-3----3-(3)--3-0-|-2---2-(2)----3--|-2----|
|-----------------|-2----2-(2)--2---|-2---------2--2--|-2----|
|------2-(2)----2-|-0----0-(0)--0---|-2---------------|-2----|
|-2---------------|-----------------|-0---------------|-0----|
|-0-----------0---|-----------------|-----------------|------|

                                     (play a little bit slower)


(new version of "where did you sleep last night" is coming soon!)





Comments


Popular Nirvana tabs & chords
Drain You 3 Bass Tabs
Hollywood Rock Fest 93 Bass 2 Bass Tabs
Radio Friendly Unit Shifter Bass Tabs
Cocaine Girl Chords
Blandest 3 Tabs
Come As You Are Intro Tabs
Mary Unplugged Tabs
Something In The Way Tabs
Unplugged In Ny 1 Tabs
Bring Back Rock N Roll Ukulele


Song lyrics



↑ Back to top | Tablatures and chords are parodies/interpretations of the original songs. You may use it for private study, scholarship, research or language learning purposes only
© 2014 AZChords.com Contact us | Privacy policy | DMCA | Add/correct tabs | Request tabs | Top 50 tabs