» » »

Heart - Shaped Box Bass tabs (ver.1)

Artists:  A B C D E F G H I J K L M N O P Q R S T U V W X Y Z # 

Heart - Shaped Box Bass tabs (ver.1)

Nirvana
Rating:
0/5 (0 votes)

Hard to play? Try these video lessons and learn fast.
                Nirvana – Heart shaped box     CD: In Utero

Guitar Intro 

Verse (she eyes me like…) repeat 8 times
|-------------------------------------|
|-------------------------------------|
|-0-0-0-0-----------------------------|
|---------3-3-3-3-0-0-0-0-0-0-0-0-----|

Chorus (Hey…Wait) repeat 6 times
|-----------------------------------|
|-----4~----------------------------|
|-0-0-------3~-----3~-----4---------|
|-------3-3----0-0----0-5--3--------|

Bridge (your advice…) repeat 2 times
|------------------------------------|
|------------------------------------|
|------------------------------------|
|-3-3-3-3-3-3-3-3-0-0-0-0-0-0-0-0----|

Verse (meat-eating orchards…) repeat 8 times
|-------------------------------------|
|-------------------------------------|
|-0-0-0-0-----------------------------|
|---------3-3-3-3-0-0-0-0-0-0-0-0-----|

Chorus (Hey…Wait) repeat 6 times
|-----------------------------------|
|-----4~----------------------------|
|-0-0-------3~-----3~-----4---------|
|-------3-3----0-0----0-5--3--------|

Bridge (your advice…) repeat 2 times
|-----------------------------------|
|-----------------------------------|
|-----------------------------------|
|-3-3-3-3-3-3-3-3-0-0-0-0-0-0-0-0---|                

Guitar solo : Do chorus repeat 2 times
|--------------------------------------|
|-----4~-------------------------------|
|-0-0-------3~-----3~-----4------------|
|-------3-3----0-0----0-5--3-----------|

Verse (when guitar holds last note on solo) repeat 10 times
|------------------------------------|
|------------------------------------|
|-0-0-0-0----------------------------|
|--------3-3-3-3-0-0-0-0-0-0-0-0-----|

Chorus (Hey…Wait) repeat 6 times
|-----------------------------------|
|-----4~----------------------------|
|-0-0-------3~-----3~-----4---------|
|-------3-3----0-0----0-5--3--------|

Bridge (your advice…) repeat 4 times (on 4th time let 0 ring)
|-----------------------------------|
|-----------------------------------|
|-----------------------------------|
|-3-3-3-3-3-3-3-3-0-0-0-0-0-0-0-0---|                 

Key: ~ bend string on that fret
Well that’s it. The tab before mine did not sound right. This sounds right when I play it and it is very very easy. Have fun.
            
Hard to play? Try these video lessons and learn fast. | Correct




comments powered by Disqus
↑ Back to top | Tablatures and chords are parodies/interpretations of the original songs. You may use it for private study, scholarship, research or language learning purposes only