» » »

Nirvana, Heart - Shaped Box Bass tabs (ver.2)

Artists:  A B C D E F G H I J K L M N O P Q R S T U V W X Y Z # 

Heart - Shaped Box Bass tabs (ver.2)

Nirvana Tabs
Rating:
0/5 (0 votes)
Heart - Shaped Box lessons Tabs too difficult? Try these video lessons and learn fast
                First of all, it's easiest on a 5-string bass and that's what I'm writing the tab for.

Nirvana: Heart Shaped Box
Standard 5-String Tuning

Intro: 
      H  H      W       H  H      W
G:-----------|-----|-----------|-----|
D:-----------|-----|-----------|-----|
A:-----------|-----|-----------|-----|
E:----4--0---|-----|----4--0---|-----|
B:-----------|--2--|-----------|--2--|

Verse:  
      E E E E E E E E     W      
G:---------------------|-----|
D:---------------------|-----|
A:---------------------|-----| x8
E:----4-4-4-4-0-0-0-0--|-----|
B:---------------------|--2--|

Chorus:
      E E E E E E E E E E E E E E Q 
G:-----------------------------------|
D:-----------------------------------|
A:--------9p8-----4p2-----4---4---2--| X6
E:----4-4-----0-0--------------------|
B:--------------------2-2---2---2----|

      E E E E E E E E    W
G:--------------------|-----|
D:--------------------|-----|
A:--------------------|-----| X2
E:----0-0-0-0-0-0-0-0-|-----|
B:--------------------|--2--|

Verse:  
      E E E E E E E E     W      
G:---------------------|-----|
D:---------------------|-----|
A:---------------------|-----| x8
E:----4-4-4-4-0-0-0-0--|-----|
B:---------------------|--2--|

Chorus:
      E E E E E E E E E E E E E E Q 
G:-----------------------------------|
D:-----------------------------------|
A:--------9p8-----4p2-----4---4---2--| X6
E:----4-4-----0-0--------------------|
B:--------------------2-2---2---2----|

      E E E E E E E E    W
G:--------------------|-----|
D:--------------------|-----|
A:--------------------|-----| X2
E:----0-0-0-0-0-0-0-0-|-----|
B:--------------------|--2--|

Chorus Riff  (Behind Solo):
      E E E E E E E E E E E E E E Q 
G:-----------------------------------|
D:-----------------------------------|
A:--------9p8-----4p2-----4---4---2--| X2
E:----4-4-----0-0--------------------|
B:--------------------2-2---2---2----|

Verse Riff:  
      E E E E E E E E     W      
G:---------------------|-----|
D:---------------------|-----|
A:---------------------|-----| x10
E:----4-4-4-4-0-0-0-0--|-----|
B:---------------------|--2--|

Chorus:
      E E E E E E E E E E E E E E Q 
G:-----------------------------------|
D:-----------------------------------|
A:--------9p8-----4p2-----4---4---2--| X6
E:----4-4-----0-0--------------------|
B:--------------------2-2---2---2----|

Outro: 
      E E E E E E E E    W
G:--------------------|-----|
D:--------------------|-----|
A:--------------------|-----| X4
E:----0-0-0-0-0-0-0-0-|-----|
B:--------------------|--2--|


Tab Legend:

Letters Above Measures:
W:Whole Note
H:Half Note
Q:Quarter Note
E:8th Note
Letters in Measures:
p:pull-off
            

comments powered by Disqus
↑ Back to top | Nirvana Bass for Heart - Shaped Box. Lyrics for acoustic guitar and electric guitar. Tablatures and chords are parodies/interpretations of the original songs. You may use it for private study, scholarship, research or language learning purposes only