» » »

Nine Days, Absolutely Tabs (ver.4)

Artists:  A B C D E F G H I J K L M N O P Q R S T U V W X Y Z # 

Absolutely Tabs (ver.4)

Nine Days Tabs
Rating:
0/5 (0 votes)
Absolutely lessons Tabs too difficult? Try these video lessons and learn fast
                (Solo)
Standard tuning: EADGBe

/ = slide

e|--10---7-7---10-10-10-10-10----------------------------------------------|
B|--10---8-8---10-10-10-10-10----------------------------------------------|
G|-------------------------------------------------------------------------|
D|--------------------------------------9/10-10-10-10-9----------------9---|
A|------------------------------12-10-------------------12-10-12-10-12-----|
E|-------------------------------------------------------------------------|

e|------------10-10--------------------------10---10-10-8--7---------------|
B|--8-8-8-8---10-10--8---8-----8---8-8-8-8---10---12-12-10-8---------------|
G|-------------------------7-9---------------------------------------------|
D|-------------------------------------------------------------------------|
A|-------------------------------------------------------------------------|
E|-------------------------------------------------------------------------|

e|--15-15-15-15---12-12--10---10-10/12---15-15-15-15---12-12--10--10-10/0--|
B|--15-15-15-15---12-12--10---10-10/12---15-15-15-15---12-12--10--10-10/0--|
G|-------------------------------------------------------------------------|
D|-------------------------------------------------------------------------|
A|-------------------------------------------------------------------------|
E|-------------------------------------------------------------------------|

e|-----------------------10------------------------------------------------|
B|--12/10-8----8--10-8----------8-8-8-8---8-8-8----------------------------|
G|-----------9------------------------9---9-9-9-9-7------------------------|
D|--------------------------------------------------9-7-7-5----------------|
A|----------------------------------------------------------7-5-7----------|
E|-------------------------------------------------------------------------|

This isn't perfect but it's pretty darn close.

Some of the notes could be played on different strings and so the fingering might be a 
off.  These are the correct tones, so just re-work the frets to whatever feels most 
for you.

Hope this helps, enjoy!

-Queso
            
Submit corrections

comments powered by Disqus
↑ Back to top | Nine Days Tabs for Absolutely. Lyrics for acoustic guitar and electric guitar. Tablatures and chords are parodies/interpretations of the original songs. You may use it for private study, scholarship, research or language learning purposes only