>
 >
Absolutely

Absolutely Guitar Tabs

Nine Days - Absolutely chords, tabs, tablatures, lyrics

Guitar lessons | Add/correct | Request | Top 50 tabs Artists:  A B C D E F G H I J K L M N O P Q R S T U V W X Y Z 0-9

Absolutely Guitar Tabs – Nine Days

CD, Sheet music, Poster

Do you like Absolutely? Share with your friends now
Bass TabsChordsChords v2Chords v3TabsTabs v2Tabs v3Tabs v4Tabs v5Tabs v6Tabs v7Ukulele


This is a great song and it took me a while to tab the solo,
you will find that the solo is a bit different than the song but it 
sounds good,try it out.
Anyone got corrections for me,
ICQ me (8007202)
Enjoy....

Chords

Chords:
Csus2......032033
G5.........320033
A7sus4.....002233
D..........000232
Bm.........024432
Em7........022033
Dadd4/F#...200233



Chorus:

Csus2   G5   A7sus4   D   Bm   Csus2  A7sus4   

This is a story of a girl..bla bla bla


I absolutely love her

G5   D   Csus2   G5   D   Csus2


Verse:

Bm                    Csus2
How many days in a year

G5                                           D
She woke up with hope but she only found tears

The rest of the verse is the same(Just reapeat Bm,Csus2,G5,D)


Bridge:


 Em7                 Dadd4/F#
Your clothes never wear as well the next day 

    G5                  A7sus4
Your hair never falls in quite the same way

Em7              Dadd4/F#             A7sus4 A7sus4 A7sus4 A7sus4
But you never seem to run out of things to say


Then,do the Chorus...


Then,do the Verse...


Then,do the Bridge...


Then,do the Chorus...


Now,the SOLO:
(Chords for solo is same as bridge)



|-----------------------------------------------------------------------------------------------------------------------------------10-10-10-10-8-8----|
|-----------------------------------------------------------------------------8-8-8-8-10-10b14r10-8-8-8-8-8-8-8-8-10-12-12b14-12-10--------------------|
|------------------------------------------------------------------------------------------------------------------------------------------------------|
|-------9-9-9-9-5h7p5-5-5-5-5-5-5-9-/10-12-12-12-/14b16r14-12----12-14b16r14---------------------------------------------------------------------------|
|8b10----------------------------------------------------------14--------------------------------------------------------------------------------------|
|------------------------------------------------------------------------------------------------------------------------------------------------------|
                                       Here you can change 12(D-String) 
to                          
                                       7(G-string:),it's more easier 
that way                     
                                         
                                     
|-6---6h8-7\10-10-10-10-10-10-8------------------------------------------------------------------------------|
|---8---------------------------6h8p6-10b12r10-8-----8-10b12r10-8----8-/10-/8---------------------------------|
|--------------------------------------------------9---------------9----------7-7-7h7-9-9-9-7-----------------|
|---------------------------------------------------------------------------------------------9-7---7-9b11r9--|
|-------------------------------------------------------------------------------------------------9-----------|
|-------------------------------------------------------------------------------------------------------------|
Nice?


Now do the Bridge


Then do the Chorus,

END



--------------------------------------------------------------------------------
Legend
------

 h  = hammer-on		 |  = bar
 p  = pull-off		||  = double bar
 b  = bend		||* = repeat start
 r  = bend release	*|| = repeat end
 /  = slide up/down	*|  = double bar (end)
[5] = nat. harmonic	 !  = repeat beat (,8th)
<5> = art. harmonic	!!  = repeat beat (16th)
 ~  = vibrato		 %  = repeat measure
 tr = trill		 :  = bar (freetime)
 T  = tap		du  = tremolo bar dip
 TP = trem. picking	 d  = tremolo bar down
 PM = palm muting	 u  = tremolo bar up
 S  = slap		ud  = tremolo bar inverted dip
 P  = pop		 =  = hold (bend or tremolo bar)
--------------------------------------------------------------------------------

******************************************************************************************
******************************************





Comments


Popular Nine Days tabs & chords
Absolutely Bass Tabs
Absolutely (Story Of A Girl) Chords
If I Am 2 Chords
If I Am 3 Chords
Moment Chords
Suddenly A Brown Eyed Girl Chords
Absolutely 4 Tabs
Beautiful Tabs
I Am Tabs
Story Of A Girl Tabs


Song lyrics



↑ Back to top | Tablatures and chords are parodies/interpretations of the original songs. You may use it for private study, scholarship, research or language learning purposes only
© 2014 AZChords.com Contact us | Privacy policy | DMCA | Add/correct tabs | Request tabs | Top 50 tabs