» » »

Nine Days, Absolutely Bass tabs (ver.1)

Artists:  A B C D E F G H I J K L M N O P Q R S T U V W X Y Z # 

Absolutely Bass tabs (ver.1)

Nine Days Tabs
 Rating:
3.7/5 (6 votes)
Absolutely lessons Tabs too difficult? Try these video lessons and learn fast
1
                Bass starts at end of; “when she smiles”:-

Intro
G|---------|
D|---------|     x2
A|----55-3-|
E|-3-3-----|

Verse  
G|---------|
D|---------|     x4
A|-2-3---5-|  
E|-----3---|

Bridge
G|---------------|
D|---------------|     x1
A|-------0-2-3-5-|
E|-0-2-3---------|

Chorus (part 1)
G|---------------|
D|---------------|     x1
A|-3---5-7-2-3-0-|
E|---3-----------|

Chorus (part 2)
G|---------|
D|---------|     x2 
A|-----5-3-|
E|-3-3-----|

Verse x4

Bridge x1

Chorus (part 1) x1


2nd bridge
G|---------------|
D|---------------|     x1
A|---------------|
G|-0-2-3-5-0-2-5-|

Verse x4

Bridge x1

Bass stops and restarts after 16 beats

Chorus (part 1) x2

Chorus (part 2) x3

End on; E|-3-     Let note ring
            
Submit corrections

comments powered by Disqus
↑ Back to top | Nine Days Bass for Absolutely. Lyrics for acoustic guitar and electric guitar. 1 Tablatures and chords are parodies/interpretations of the original songs. You may use it for private study, scholarship, research or language learning purposes only