» » »

Last Time Around Tabs (ver.1)

Artists:  A B C D E F G H I J K L M N O P Q R S T U V W X Y Z # 

Last Time Around Tabs (ver.1)

Nick Jonas And The Administration
Rating:
3/5 (1 vote)

Tabs too difficult? Try these video lessons and learn fast.
                Intro

|------------|
|------------|
|-------0----| x32
|---0-2------|
|------------|
|------------|


Verse

|---------------------------------------------|
|---------------------------------------------|
|---------------------------------------------|
|---------------------------------------------|
|---------------------------------------------|
|--0--0p3--3p5--5h3--3h0--0p3--3p5--3--5--3---|



|---------------------------------------------------------|
|---------------------------------------------------------|
|---------------------------------------------------------|
|---------------------------------------------------------|
|---------------------------------------------------------|
|--0--0p3--3p5--5h3--3h0--0p3--3p5--3--5--3--7--5--7--5---|





Chorus

|-------------------------|
|-------------------------|
|-------------------------|   x4
|-------------------------|
|-------------------------|
|--0--0p3--3p5--5h3--3h0--|


Intro

Verse

Chorus


Solo

|-------------------------------------------------------|
|-------------------------------------------------------|
|-------------------------------------------------------|
|-------------------------------------------------------|   x4
|---------5----------------------------5----------------|
|--0--3p5---7--3p5--3p0--3p0-------3p5---7--3--5--3--0--|


Intro

Chorus

Intro

Solo
            
Tabs too difficult? Try these video lessons and learn fast.




comments powered by Disqus
↑ Back to top | Tablatures and chords are parodies/interpretations of the original songs. You may use it for private study, scholarship, research or language learning purposes only