» » »

Last Time Around Tabs (ver.2)

Artists:  A B C D E F G H I J K L M N O P Q R S T U V W X Y Z # 

Last Time Around Tabs (ver.2)

Nick Jonas And The Administration
Rating:
4/5 (5 votes)

Hard to play? Try these video lessons and learn fast.
                Hey it's Jon4sLuv3r
This is Last Time Around by Nick Jonas and the Administration off of Who I Am
which came out Tuesday :)
Comment Rate Enjoy!

Tunning Standard

Intro: (play until verse)
Here are different variations...h = hammer on
e|---------|    |---------|    |---------|
B|---------|    |---------|    |------8--|
G|------0--|    |---------|    |--7h9----|
D|--0h2----|    |------5--|    |---------|
A|---------|    |--5h7----|    |---------|
E|---------|    |---------|    |---------|

Verse:
e|---x---x---x---x---|      e|--x--|
B|---x---x---x---x---|      B|--x--|
G|---x---x---x---x---|      G|--4--|
D|---2---5---7---5---| x4   D|--4--|
A|---2---5---7---5---|      A|--2--|
E|---0---3---5---3---|      E|--x--|
"Walk in the room..."        "Some how i missed it"

Chorus:                                   (One strum)
e|---x----x----x----x---|      e|--x---x---x---|
B|---x----x----x----x---|      B|--x---x---x---|
G|---x----x----x----x---|      G|--x---x---x---|
D|---2----5----7----5---| x3   D|--2---5---7---|
A|---2----5----7----5---|      A|--2---5---7---|
E|---0----3----5----3---|      E|--0---3---5---|
"keep on movin...."      "Don't forget.." "had"

"Last time around"
        e|------------|
        B|-------0----| (same as intro)
        G|---0h2------| repeat until verse
        D|------------| or continue chorus chords
        A|------------| if u dont want to play this
        E|------------|

Verse:
e|---x---x---x---x---|      e|--x--|
B|---x---x---x---x---|      B|--x--|
G|---x---x---x---x---|      G|--4--|
D|---2---5---7---5---| x4   D|--4--|
A|---2---5---7---5---|      A|--2--|
E|---0---3---5---3---|      E|--x--|
"you walk around with.."    "can't you remember"

Chorus:                                   (One strum)
e|---x----x----x----x---|      e|--x---x---x---|
B|---x----x----x----x---|      B|--x---x---x---|
G|---x----x----x----x---|      G|--x---x---x---|
D|---2----5----7----5---| x3   D|--2---5---7---|
A|---2----5----7----5---|      A|--2---5---7---|
E|---0----3----5----3---|      E|--0---3---5---|
"keep on movin...."      "Don't forget.." "had"

Bridge:
e|---------------------------------------------------|
B|---------------------------------------------------|
G|---------------------------------------------------|
D|-----------0-------------------------0-------------| x4
A|---------0---2-----0---------------0---2-----------|
E|--0x-0h3---------0---3-0-3--0x-0h3-------3-5-3-0---|

Instead of the last "E|---0|" on the last time around (no pun intended)of the 4 repeated 
start playing this right away.
e|------------|
B|-------0----| (same as intro)
G|---0h2------| repeat until chorus
D|------------| or continue chorus chords
A|------------| if u dont want to play this
E|------------|


Chorus:                                   (One strum)
e|---x----x----x----x---|      e|--x---x---x---|
B|---x----x----x----x---|      B|--x---x---x---|
G|---x----x----x----x---|      G|--x---x---x---|
D|---2----5----7----5---| x3   D|--2---5---7---|
A|---2----5----7----5---|      A|--2---5---7---|
E|---0----3----5----3---|      E|--0---3---5---|
"keep on movin...."      "Don't forget.." "had"

                                         (One strum)
e|---x----x----x----x---|      e|--x---x---x---|
B|---x----x----x----x---|      B|--x---x---x---|
G|---x----x----x----x---|      G|--x---x---x---|
D|---2----5----7----5---| x3   D|--2---5---7---|
A|---2----5----7----5---|      A|--2---5---7---|
E|---0----3----5----3---|      E|--0---3---5---|
"keep on movin...."      "Don't forget.." "had"

e|------------|
B|-------0----| (same as intro)
G|---0h2------| repeat until solo
D|------------| or continue chorus chords
A|------------| if u dont want to play this
E|------------|

The solo is way to hard to me to figure out lol so just play this til the end:
(Solo-not really lol):
e|--------------------------|
B|--------------------------|
G|--------------------------|
D|------------0-------------|  repeat til almost the end
A|----------0---2-----------|
E|---0x-0h3-------3-5-3-0---|

Then on the very last time:

e|--------------------5--3--0~~~---|
B|--------------------5--3--0~~~---|
G|--------------------5--3--0~~~---|
D|------------0-------7--5--2~~~---|
A|----------0---2-----7--5--2~~~---|
E|---0x-0h3--------3--5--3--0~~~---|

YAYYYY :D Rate and comment :D
            
Hard to play? Try these video lessons and learn fast. | Correct




comments powered by Disqus
↑ Back to top | Tablatures and chords are parodies/interpretations of the original songs. You may use it for private study, scholarship, research or language learning purposes only