» » »

Newton Faulkner, Lullaby Tabs (ver.1)

Artists:  A B C D E F G H I J K L M N O P Q R S T U V W X Y Z # 

Lullaby Tabs (ver.1)

Newton Faulkner Tabs
 Rating:
4/5 (8 votes)
Lullaby lessons Tabs too difficult? Try these video lessons and learn fast
                right, heres the tab for lullaby, sounds right when played on the piano this way. "L" 
a linked note, generally 2-4 beats in this song. Tempo is 120BPM.

E||--------------------------|-----------------------|
B||--------------14----15----|--L--------15----14----|
G||--------11----------------|-----------------------|
D||--12----------------------|-----------------------|
A||--------------------------|-----------------------|
E||--------------------------|-----------------------|


--------------------------|-----------------------|--------------------------|
--------------14----15----|--L--------15----14----|--------------14----15----|
--------12----------------|-----------------------|--------14----------------|
--12----------------------|-----------------------|--12----------------------|
--------------------------|-----------------------|--------------------------|
--------------------------|-----------------------|--------------------------|


-----------------------|--------------------------|--17----------------|
--L--------15----14----|--------------14----15----|--------------------|
-----------------------|--------12----------------|--------------------|
-----------------------|--12----------------------|--------------------|
-----------------------|--------------------------|--------------------|
-----------------------|--------------------------|--------------------|


---L----------------|--------------------------|-----------------------|
--------------------|--------------14----15----|--L--------15----14----|
--------------------|--------11----------------|-----------------------|
--------------------|--12----------------------|-----------------------|
--------------------|--------------------------|-----------------------|
--------------------|--------------------------|-----------------------|


--------------------------|-----------------------|--------------------------|
--------------14----15----|--L--------15----14----|--------------14----15----|
--------12----------------|-----------------------|--------14----------------|
--12----------------------|-----------------------|--12----------------------|
--------------------------|-----------------------|--------------------------|
--------------------------|-----------------------|--------------------------|


-----------------------|--------------------------|--17----------------------|
--L--------15----14----|--------------14----15----|--------15----14----15----|
-----------------------|--------12----------------|--------------------------|
-----------------------|--12----------------------|--------------------------|
-----------------------|--------------------------|--------------------------|
-----------------------|--------------------------|--------------------------|


--------------------------|-----------------------|--------------------------|
--------------14----15----|--L--------15----14----|--------------14----15----|
--------11----------------|-----------------------|--------12----------------|
--12----------------------|-----------------------|--12----------------------|
--------------------------|-----------------------|--------------------------|
--------------------------|-----------------------|--------------------------|


-----------------------|--------------------------|-----------------------|
--L--------15----14----|--------------14----15----|--L--------15----14----|
-----------------------|--------14----------------|-----------------------|
-----------------------|--12----------------------|-----------------------|
-----------------------|--------------------------|-----------------------|
-----------------------|--------------------------|-----------------------|


--------------------------|--17----------------------|
--------------14----15----|--------15----14----15----|
--------12----------------|--------------------------|
--12----------------------|--------------------------|
--------------------------|--------------------------|
--------------------------|--------------------------|


--------------------------|--------------------------|
--------------14----15----|--------------14----15----|
--------11----------------|--------11----------------|
--------------------------|--------------------------|
--14----------------------|--12----------------------|
--------------------------|--------------------------|


--------------------------|--17--------------------|--------------------------|
--------------14----15----|------------14----15----|--------------14----15----|
--------11----------------|------------------------|--------11----------------|
--------------------------|------------------------|--------------------------|
--10----------------------|------------------------|--14----------------------|
--------------------------|------------------------|--------------------------|


--------------------------|-------------------|-------------------||
--------------14----15----|-------------------|-------------------||
--------11----------------|-------------------|-------------------||
--------------------------|-------------------|-------------------||
--12----------------------|-------------------|-------------------||
--------------------------|--3----------------|--L----------------||
            
Submit corrections

comments powered by Disqus
↑ Back to top | Newton Faulkner Tabs for Lullaby. Lyrics for acoustic guitar and electric guitar. Tablatures and chords are parodies/interpretations of the original songs. You may use it for private study, scholarship, research or language learning purposes only