» » »

Lullaby Tabs (ver.2)

Artists:  A B C D E F G H I J K L M N O P Q R S T U V W X Y Z # 

Lullaby Tabs (ver.2)

Newton Faulkner
Rating:
5/5 (1 vote)

Tabs too difficult? Try these video lessons and learn fast.
                ----------------------------------------------------------------------------
                             Lullaby - Newton Faulkner                     
----------------------------------------------------------------------------



Tuning:standard

INTRO:
e|---------------------------------------------------5---|
B|-------------------------------------------------------|
G|-----6-7--7-6------6-7--7-6------6-7--7-6------6-7-----|
D|-0-4-----------0-5-----------4-7-----------0-4---------|
A|-------------------------------------------------------|
E|-------------------------------------------------------|

e|-------------------------------------------------5---------|
B|-----------------------------------------------------------|
G|-----6-7--7-6------6-7--7-6-----6-7--7-6-----6-7---(7)6-7--|
D|-0-4-----------0-5----------4-7----------0-4---------------|
A|-----------------------------------------------------------| X2
E|-----------------------------------------------------------|


e|--------5-------5-------5----------------5-------5-----|
B|--------------------------10---------------------------|
G|----6-7-----6-7-----6-7-------6-7----6-7-----6-7-------|
D|--9-------7-------5----------------9-------7-------5---|
A|-------------------------------------------------------|
E|-------------------------------------------------------|
            
Tabs too difficult? Try these video lessons and learn fast.




comments powered by Disqus
↑ Back to top | Tablatures and chords are parodies/interpretations of the original songs. You may use it for private study, scholarship, research or language learning purposes only