» » »

Lipstick Jungle Tabs (ver.3)

Artists:  A B C D E F G H I J K L M N O P Q R S T U V W X Y Z # 

Lipstick Jungle Tabs (ver.3)

Newton Faulkner
Rating:
5/5 (5 votes)

Hard to play? Try these video lessons and learn fast.
                This is off Newton Faulkner's new album Rebuilt By Humans, and is in my opinion the best 
on here :)

N.B this is my first tab, so go easy alright? :P

Tuning: Standard

Intro/Verse (played fast)

e|---------------------------------------------------|------------------------|
B|--------------------8------------7-----------5-----|--5---------------------|
G|-------4----------9------------7-----------5-------|--5---------------------|
D|-----5----------9------------7-----------5---------|--5---------------------|
A|---5----------7------------5-----------3-----------|--3---------------------|
E|-3-------------------------------------------------|------------------------|
                                                     ^ played every other bar :)


Pre - Chorus (i've been thinking...)

e|-----------------------------------------------------------------------------|
B|------------------------------5------------7---------------------------------|
G|-------4----------7---------5------------7-----------------------------------|
D|-----5----------9---------5------------7-------------------------------------|
A|---5----------9---------3------------5---------------------------------------|
E|-3----------7----------------------------------------------------------------|

after that  it goes:

e|---------------------------------------------------------------------------|
B|--------------------10--8--------8-7---------5-----------------------------|
G|-------4----------9------------7-----------5-------------------------------|
D|-----5----------9------------7-----------5---------------------------------|
A|---5----------7------------5-----------3-----------------------------------|
E|-3-------------------------------------------------------------------------|

Chorus - this may be a bit off but:

The basic chords used are the barre chords :

G, B, C, D

and I'm working on the Jazzy bit at the moment, so that will be up soon :)

Cheers guys and comment/amend as you wish :)

Happy strumming! :)
xx
            
Hard to play? Try these video lessons and learn fast. | Correct




comments powered by Disqus
↑ Back to top | Tablatures and chords are parodies/interpretations of the original songs. You may use it for private study, scholarship, research or language learning purposes only