» » »

Newton Faulkner, Lipstick Jungle Tabs (ver.1)

Artists:  A B C D E F G H I J K L M N O P Q R S T U V W X Y Z # 

Lipstick Jungle Tabs (ver.1)

Newton Faulkner Tabs
 Rating:
4.3/5 (6 votes)
Lipstick Jungle lessons Tabs too difficult? Try these video lessons and learn fast
1
                Hey!

Rebuilt By Humans
Newton Faulkner

Intro:

e:----------------------------|
B:----------8------7------5---|
G:---4-x---9--x---7--x---5--x-|
D:--5--x--9---x--7---x--5---x-|
A:-5---x-7----x-5----x-3----x-|
E:3----x------x------x------x-|  (x2)

Verse:

e:-----------------------------------------------------|
B:----------8------7------5-------------8------7-5-----|
G:---4-x---9--x---7--x---5--x----4-x---9--x---7--5-----|
D:--5--x--9---x--7---x--5---x---5--x--9---x--7---5-----|
A:-5---x-7----x-5----x-3----x--5---x-7----x-5----3-----|
E:3----x------x------x------x-3----x------x------------|  (x2)

Chorus:

e:----------------------------|
B:----------3------5------7---|
G:---4-x---4--x---5--x---7--x-|
D:--5--x--4---x--5---x--7---x-|
A:-5---x-2----x-3----x-5----x-|
E:3----x------x------x------x-| (x4)

Verse again

Chorus

New little bit but same as chorus

Verse

Little bit again

Bridge:

e:--------------------------------------------------------|
B:--------------------------------------------------------|
G:--------------------------------------------------------|
D:-5/7-7--5/7-7--5/7-7--5/7-7--4/5-5--4/5-5--4/5-5--4/5-5-|
A:-5/7-7--5/7-7--5/7-7--5/7-7--4/5-5--4/5-5--4/5-5--4/5-5-|
E:-3/5-5--3/5-5--3/5-5--3/5-5--2/3-3--2/3-3--2/3-3--2/3-3-| (x4)

Little bit again twice then your done!

Have fun!
            
Submit corrections

comments powered by Disqus
↑ Back to top | Newton Faulkner Tabs for Lipstick Jungle. Lyrics for acoustic guitar and electric guitar. 1 Tablatures and chords are parodies/interpretations of the original songs. You may use it for private study, scholarship, research or language learning purposes only