» » »

New Car Smell, Some Day Tabs (ver.2)

Artists:  A B C D E F G H I J K L M N O P Q R S T U V W X Y Z # 

Some Day Tabs (ver.2)

New Car Smell Tabs
 Rating:
4/5 (4 votes)
Some Day lessons Tabs too difficult? Try these video lessons and learn fast
                New Car Smell 
Some Day solo
Standard tuning

gt. 1     
e|--------------------------------|2x        
B|--------------------------------|           
G|--------------------------------|
D|-----7-----7------4----4-h5-4---|
A|---5-----5---5-------5----------|
E|----------------7---------------|

e|--------------------------------|
B|--------------------------------|
G|--------------------------------|
D|----4----4-h5-4----7---7-0------|
A|-------5-------------5----------|
E|--3--------------5--------------|

gt. 2
e|-------------------------------------|2x      
B|-------------------------------------|         
G|--77-7------44-4---------------------|
D|--77-7------44-4-----55-5------77-7--|
A|--55-5------22-2-----55-5------77-7--|
E|---------------------33-3------55-5--|
            
Submit corrections

comments powered by Disqus
↑ Back to top | New Car Smell Tabs for Some Day. Lyrics for acoustic guitar and electric guitar. Tablatures and chords are parodies/interpretations of the original songs. You may use it for private study, scholarship, research or language learning purposes only