>
 >
Some Day

Some Day Guitar Tabs

New Car Smell - Some Day chords, tabs, tablatures, lyrics

Guitar lessons | Add/correct | Request | Top 50 tabs Artists:  A B C D E F G H I J K L M N O P Q R S T U V W X Y Z 0-9

Some Day Guitar Tabs – New Car Smell

CD, Sheet music, Poster

Do you like Some Day? Share with your friends now
TabsTabs v2
New Car Smell
Some Day 
Standard Tuning

intro:
-----------------------------------------------------
-----------------------------------------------------
-----------------------------------------------------
-----7-5-4-5-----7-5-4-5-----7-5-4-5------7-5-4-5----
-5-5---------5-5---------5-5---------5-5-------------
-----------------------------------------------------
p.m  ------  --- ------- --- ------- ---  --------

both guitars after pm intro *=8x
------------------------------------------------------
------------------------------------------------------
---7*---4*--------------------------------------------
---7----4---5*--7*------------------------------------
---5----2---5---7-------------------------------------
------------3---5-------------------------------------

verse:
------------------------------------------------------
------------------------------------------------------
--77-7-77-7-44-4-44-4---------------------------------
--77-7-77-7-44-4-44-4-55-5-55-5-55-7-77-7-------------
--55-5-55-5-22-2-22-2-55-5-55-5-77-7-77-7-------------
----------------------33-3-33-3-55-5-55-5-------------
pm--   --   --   --   --   --   --   --

corus: *=8x
------------------------|------------------------------
------------------------|------------------------------
--7*-4*-----------------|--7*--11*--9*--11*------------
--7--4--5*-7*-----------|--7---11---9---11-------------
--5--2--5--7------------|--5---9----7---9--------------
--------3--5------------|------------------------------
gt 1.                           gt 2.





Comments


Popular New Car Smell tabs & chords
All Alone Tabs
Behind The Lamp Tabs
Behind The Lamp 1 Tabs
Never There Tabs
Some Day 1 Tabs
Song About You Tabs
Standing Here Sitting Tabs
Table 4 Two Ver. 3 Tabs


Song lyrics



↑ Back to top | Tablatures and chords are parodies/interpretations of the original songs. You may use it for private study, scholarship, research or language learning purposes only
© 2014 AZChords.com Contact us | Privacy policy | DMCA | Add/correct tabs | Request tabs | Top 50 tabs