» » »

Nevershoutnever, Jane Doe Chords (ver.3)

Artists:  A B C D E F G H I J K L M N O P Q R S T U V W X Y Z # 

Jane Doe Chords (ver.3)

Nevershoutnever Tabs
 Rating:
4/5 (4 votes)
Jane Doe lessons Tabs too difficult? Try these video lessons and learn fast
                Album Version.
Capo on 2nd Fret.

G
Jane Doe, 
        
I don't think I know you,
      D
but I know for sure

that you are beautiful
        G
so baby let me know
     D
your name
             (2nd Fret G)
e|---------------------5---|
B|---------------------5---|
G|---------------------2---|
D|----2----4----6------2---|
A|---------------------4---|
E|------------------3--5---|
Damn, what's her name

cause I overly attracted
               D
and terribly convinced

that she could be my princess,
                    C
and I could be her prince
                D
and I felt that way since

             (2nd Fret G)
e|---------------------5---|
B|---------------------5---|
G|---------------------2---|
D|----2----4----6------2---|
A|---------------------4---|
E|------------------3--5---|             
since I saw Jane Doe

(Ukulele Solo, Tabs for guitar though.)

e|--12---10---9---7----|---5---4------2---|---12---10---9---7---|
B|---------------------|-----------5------|---------------------|
G|---------------------|------------------|---------------------|
D|---------------------|------------------|---------------------|
A|---------------------|------------------|---------------------|
E|---------------------|------------------|---------------------|

e|--5----4----2---2----|--12---10---9---7-|---5---4-----------|
B|---------------------|------------------|-----------5~~~~5--|
G|---------------------|------------------|-------------------|
D|---------------------|------------------|-------------------|
A|---------------------|------------------|-------------------|
E|---------------------|------------------|-------------------|

e|---2----4----7-------|
B|---------------------|
G|---------------------|
D|---------------------|
A|---------------------|
E|---------------------|


G
Jane Doe,

I don't think I know you,
      D
but I know, for sure

that I could get to know you
       G
if you let me know
      D
your name
             (2nd Fret G)
e|---------------------5---|
B|---------------------5---|
G|---------------------2---|
D|----2----4----6------2---|
A|---------------------4---|
E|------------------3--5---|                  
Damn, what's her name

cause I overly attracted
              D
and terribly convinced

that she could be my princess,
                   C
and I could be her prince
                D
and I felt that way since

             (2nd Fret Am)
e|---------------------2---|
B|---------------------3---|
G|---------------------4---|
D|----2----4----6------4---|
A|---------------------2---|
E|------------------2--2---|
since I saw Jane Doe
                          C
she's everything I want & more
                            F
she's everything I want for sure
                            D
she's everything I want to adore
           G
well baby, I

             (2nd Fret G)
e|---------------------5---|
B|---------------------5---|
G|---------------------2---|
D|----2----4----6------2---|
A|---------------------4---|
E|------------------3--5---|
am overly attracted
              D
and terribly convinced

that she could be my lover
                      C
and I think I lost my chance
                     D 
you had me at first glimpse
           G
oh my Jane Doe

        (2nd Freat G)
e|-----9-----7-----5----|
B|-----------------5----|
G|-----------------2----|
D|-----------------2----|
A|-----------------4----|
E|-----------------5----|
            
Submit corrections

comments powered by Disqus
↑ Back to top | Nevershoutnever Chords for Jane Doe. Lyrics for acoustic guitar and electric guitar. Tablatures and chords are parodies/interpretations of the original songs. You may use it for private study, scholarship, research or language learning purposes only