» » »

Nevershoutnever, I Just Laugh Tabs (ver.1)

Artists:  A B C D E F G H I J K L M N O P Q R S T U V W X Y Z # 

I Just Laugh Tabs (ver.1)

Nevershoutnever Tabs
 Rating:
4/5 (4 votes)
I Just Laugh lessons Tabs too difficult? Try these video lessons and learn fast
1
                This is the Slide guitar version

NO capo
standard tuning

e|------------------------------------------------|
B|------------------------------------------------|
G|------------------------------------------------|
D|------------------------------------------------|
A|-0-0--0-0-2/7--0-0--0-0-2/7--0-0--0-0-4b4\2/4\2-|
E|------------------------------------------------| x2

play each chord a few times

e|--5------5---5------5--|
B|--5------7---5------7--|
G|--6------7---6------7--|
D|--7------7---7------7--|
A|--7------5---7------5--|
E|--5----------5---------|

play each chord only once

e|--5---5---3---5---5--|
B|--5---7---3---7---5--|
G|--6---7---4---7---6--|
D|--7---7---5---7---7--|
A|--7---5---5---5---7--|
E|--5-------3-------5--|


e|----------------------------------------------------------------|
B|----------------------------------------------------------------|
G|-7-7-7--7-7-----------7-7-7--7-7-----------7-7-7--7-7-----------|
D|-7-7-7--7-7-----------7-7-7--7-7-----------7-7-7--7-7-----------|
A|-5-5-5--5-5-----------5-5-5--5-5-----------5-5-5--5-5-----------|
E|----------------------------------------------------------------|

e|----------------------------------------------------------------|
B|----------------------------------------------------------------|
G|----------------------------------------------------------------|
D|-2-2-2--2-2-2-/7-7-7\-2-2-2--2-2-2-/7-7-7\-2-2-2--2-2-2-/7-7-7--|
A|-2-2-2--2-2-2-/7-7-7\-2-2-2--2-2-2-/7-7-7\-2-2-2--2-2-2-/7-7-7--|
E|-0-0-0--0-0-0-/5-5-5\-0-0-0--0-0-0-/5-5-5\-0-0-0--0-0-0-/5-5-5--|

e|--------------------|
B|--------------------|
G|--------------------|
D|--------------9b9/7-|
A|-0-0--0-0-2/7-------|
E|--------------------|

e|------------------------------------------------|
B|------------------------------------------------|
G|------------------------------------------------|
D|------------------------------------------------|
A|-0-0--0-0-2/7--0-0--0-0-2/7--0-0--0-0-4b4\2/4\2-|
E|------------------------------------------------| x2

play each chord only once

e|--5---5---3---5---5--|
B|--5---7---3---7---5--|
G|--6---7---4---7---6--|
D|--7---7---5---7---7--|
A|--7---5---5---5---7--|
E|--5-------3-------5--|

e|----------------------------------------------------------------|
B|----------------------------------------------------------------|
G|-7-7-7--7-7-----------7-7-7--7-7-----------7-7-7--7-7-----------|
D|-7-7-7--7-7-----------7-7-7--7-7-----------7-7-7--7-7-----------|
A|-5-5-5--5-5-----------5-5-5--5-5-----------5-5-5--5-5-----------|
E|----------------------------------------------------------------|

e|----------------------------------------------------------------|
B|----------------------------------------------------------------|
G|----------------------------------------------------------------|
D|-2-2-2--2-2-2-/7-7-7\-2-2-2--2-2-2-/7-7-7\-2-2-2--2-2-2-/7-7-7--|
A|-2-2-2--2-2-2-/7-7-7\-2-2-2--2-2-2-/7-7-7\-2-2-2--2-2-2-/7-7-7--|
E|-0-0-0--0-0-0-/5-5-5\-0-0-0--0-0-0-/5-5-5\-0-0-0--0-0-0-/5-5-5--|

e|---------------------------------|
B|---------------------------------|
G|---------------------------------|
D|-2-2-2--2-2-2--2-2-2-/7-7-7-77-7-|
A|-2-2-2--2-2-2--2-2-2-/7-7-7-77-7-|
E|-0-0-0--0-0-0--0-0-0-/5-5-5-55-5-|

e|----------------------------------------------------------------|
B|----------------------------------------------------------------|
G|-7-7-7--7-7-----------7-7-7--7-7-----------7-7-7--7-7-----------|
D|-7-7-7--7-7-----------7-7-7--7-7-----------7-7-7--7-7-----------|
A|-5-5-5--5-5-----------5-5-5--5-5-----------5-5-5--5-5-----------|
E|----------------------------------------------------------------|

e|----------------------------------------------------------------|
B|----------------------------------------------------------------|
G|----------------------------------------------------------------|
D|-2-2-2--2-2-2-/7-7-7\-2-2-2--2-2-2-/7-7-7\-2-2-2--2-2-2-/7-7-7--|
A|-2-2-2--2-2-2-/7-7-7\-2-2-2--2-2-2-/7-7-7\-2-2-2--2-2-2-/7-7-7--|
E|-0-0-0--0-0-0-/5-5-5\-0-0-0--0-0-0-/5-5-5\-0-0-0--0-0-0-/5-5-5--|

e|-----------------------------------|
B|-----------------------------------|
G|-----------------------------------|
D|-----------------------------------|
A|-0-0--0-0-2/7--0-0--0-0-2/7--0-0--0|
E|-----------------------------------|
            
Submit corrections

comments powered by Disqus
↑ Back to top | Nevershoutnever Tabs for I Just Laugh. Lyrics for acoustic guitar and electric guitar. 1 Tablatures and chords are parodies/interpretations of the original songs. You may use it for private study, scholarship, research or language learning purposes only