» » »

Fifteen Tabs (ver.1)

Artists:  A B C D E F G H I J K L M N O P Q R S T U V W X Y Z # 

Fifteen Tabs (ver.1)

Nevershoutnever
Rating:
0/5 (0 votes)

Hard to play? Try these video lessons and learn fast.
                This is the way I play it. Nevershoutnever has many songs with this pattern.



     D                          Gb
E||-----2-----2-----2-----2--|-----2-----2-----2-----2--|
B||-----3-----3-----3-----3--|-----2-----2-----2-----2--|
G||--------2-----------2-----|--------------------------|
D||--0-----------0-----------|--------------------------|
A||--------------------------|--------4-----------4-----|
E||--------------------------|--2-----------2-----------|


  G                          A
-----3-----3-----3-----3--|-----0-----0-----0-----0--|
-----3-----3-----3-----3--|-----2-----2-----2-----2--|
--------------------------|--------------------------|
--------------------------|--------2-----------2-----|
--------5-----------5-----|--0-----------0-----------|
--3-----------3-----------|--------------------------|


  D                          Gb
-----2-----2-----2-----2--|-----2-----2-----2-----2--|
-----3-----3-----3-----3--|-----2-----2-----2-----2--|
--------2-----------2-----|--------------------------|
--0-----------0-----------|--------------------------|
--------------------------|--------4-----------4-----|
--------------------------|--2-----------2-----------|


  G                          A
-----3-----3-----3-----3--|-----0-----0-----0-----0--|
-----3-----3-----3-----3--|-----2-----2-----2-----2--|
--------------------------|--------------------------|
--------------------------|--------2-----------2-----|
--------5-----------5-----|--0-----------0-----------|
--3-----------3-----------|--------------------------|


  G                          D
-----3-----3-----3-----3--|-----3-----3-----3-----3--|
-----3-----3-----3-----3--|-----3-----3-----3-----3--|
--------------------------|--------2-----------2-----|
--------------------------|--0-----------0-----------|
--------5-----------5-----|--------------------------|
--3-----------3-----------|--------------------------|


  A
-----0-----0-----0-----0--|-----0-----0-----0-----0--|
-----2-----2-----2-----2--|-----2-----2-----2-----2--|
--------------------------|--------------------------|
--------2-----------2-----|--------2-----------2-----|
--0-----------0-----------|--0-----------0-----------|
--------------------------|--------------------------|


  G                          D
-----3-----3-----3-----3--|-----3-----3-----3-----3--|
-----3-----3-----3-----3--|-----3-----3-----3-----3--|
--------------------------|--------2-----------2-----|
--------------------------|--0-----------0-----------|
--------5-----------5-----|--------------------------|
--3-----------3-----------|--------------------------|


  A
-----0-----0-----0-----0--|-----0-----0-----0-----0--|
-----2-----2-----2-----2--|-----2-----2-----2-----2--|
--------------------------|--------------------------|
--------2-----------2-----|--------2-----------2-----|
--0-----------0-----------|--0-----------0-----------|
--------------------------|--------------------------|


 D
-----2-----2-----2-----2--|-----2-----2-----------|-----2-----2-----2-----2--|
-----3-----3-----3-----3--|-----3-----3-----------|-----3-----3-----3-----3--|
--------2-----------2-----|--------2--------------|--------2-----------2-----|
--0-----------0-----------|--0--------------------|--0-----------0-----------|
--------------------------|-----------------------|--------------------------|
--------------------------|-----------------------|--------------------------|


  Gb                         G
-----2-----2-----2-----2--|-----3-----3-----3-----3--|
-----2-----2-----2-----2--|-----3-----3-----3-----3--|
--------------------------|--------------------------|
--------------------------|--------------------------|
--------4-----------4-----|--------5-----------5-----|
--2-----------2-----------|--3-----------3-----------|


  A                          D
-----0-----0-----0-----0--|-----2-----2-----2-----2--|
-----2-----2-----2-----2--|-----3-----3-----3-----3--|
--------------------------|--------2-----------2-----|
--------2-----------2-----|--0-----------0-----------|
--0-----------0-----------|--------------------------|
--------------------------|--------------------------|


  Gb                        G
-----2-----2-----2-----2--|-----3-----3-----3-----3--|
-----2-----2-----2-----2--|-----3-----3-----3-----3--|
--------------------------|--------------------------|
--------------------------|--------------------------|
--------4-----------4-----|--------5-----------5-----|
--2-----------2-----------|--3-----------3-----------|


  A                          G
-----0-----0-----0-----0--|-----3-----3-----3-----3--|
-----2-----2-----2-----2--|-----3-----3-----3-----3--|
--------------------------|--------------------------|
--------2-----------2-----|--------------------------|
--0-----------0-----------|--------5-----------5-----|
--------------------------|--3-----------3-----------|


  D                          A
-----2-----2-----2-----2--|-----0-----0-----0-----0--|
-----3-----3-----3-----3--|-----2-----2-----2-----2--|
--------2-----------2-----|--------------------------|
--0-----------0-----------|--------2-----------2-----|
--------------------------|--0-----------0-----------|
--------------------------|--------------------------|


                             G
-----0-----0-----0-----0--|-----3-----3-----3-----3--|
-----2-----2-----2-----2--|-----3-----3-----3-----3--|
--------------------------|--------------------------|
--------2-----------2-----|--------------------------|
--0-----------0-----------|--------5-----------5-----|
--------------------------|--3-----------3-----------|


  D                         A
-----2-----2-----2-----2--|-----0-----0-----0-----0--|
-----3-----3-----3-----3--|-----2-----2-----2-----2--|
--------2-----------2-----|--------------------------|
--0-----------0-----------|--------2-----------2-----|
--------------------------|--0-----------0-----------|
--------------------------|--------------------------|


                             D
-----0-----0-----0-----0--|--2----------------||
-----2-----2-----2-----2--|--3----------------||
--------------------------|--2----------------||
--------2-----------2-----|--0----------------||
--0-----------0-----------|-------------------||
--------------------------|-------------------||
            
Hard to play? Try these video lessons and learn fast. | Correct




comments powered by Disqus
↑ Back to top | Tablatures and chords are parodies/interpretations of the original songs. You may use it for private study, scholarship, research or language learning purposes only