» » »

Coffee And Cigarettes Tabs (ver.1)

Artists:  A B C D E F G H I J K L M N O P Q R S T U V W X Y Z # 

Coffee And Cigarettes Tabs (ver.1)

Nevershoutnever
Rating:
3/5 (3 votes)
Tabs too difficult? Try these video lessons and learn fast.
                Capo on 3rd

Intro:
E|-----2-22-----2-22---|
B|-----3-33-----3-33---|
G|-----2-22-----2-22---|
D|--0--------0---------|
A|---------------------|
e|---------------------|


Verse:
E|-----2-22--------------2-22-----3-3--|
B|-----3-33-----2-22-----3-33-----3-3--|
G|-----2-22-----2-22-----4-44-----0-0--|         *Repeat through verses
D|--0-----------2-22-----3-33-----0-0--|
A|-----------0--------2----------------|
e|-----------------------------3-------|
        D        A        Bm       G

Chorus:
E|-----2-22----2-22---------------3-3--|
B|-----3-33----3-33-----2-22------3-3--|
G|-----4-44----2-22-----2-22------0-0--|         *Repeat through chorus
D|-----3-33---0---------2-22------0-0--|
A|---2----------------0----------------|
e|-----------------------------3-------|

badada thing:
Verse:
E|-----2-22--------------2-22-----3-3--|
B|-----3-33-----2-22-----3-33-----3-3--|
G|-----2-22-----2-22-----4-44-----0-0--|         *Repeat through badadas
D|--0-----------2-22-----3-33-----0-0--|
A|-----------0--------2----------------|
e|-----------------------------3-------|
        D        A        Bm       G



Coffee and cigarettes are my only escape, 
I got my cup of Joe, my pack of stokes, 
And I'm on my way down town, 
To set up shop, and sing my cares away. 
So won't you sing with me, 
Cause it's cold outside, and I'm feeling kinda lonely. 

Friday nights are always the same in this town. 
I'm looking up, but I'm feeling kind of down. 
So I'll light this cigarette and smoke the night away, 
And I'll hope that saturday will be the day 
When everything feels okay. 

Ba da da da Ba da da da da 
Ba da da da da da da da da 

Coffee and cigarettes are best when shared with you. 
We'll go to Waffle House or your Mom's House, 
And share a cup or two. 
Yeah, I have friends but they have friends, 
And they have parties and I'm so akward. 
So whatta ya say, just as friends, we see a movie 
This weekend, alright? -Okay. 

Friday nights are always the same in this town. 
I'm looking up but I'm feeling kind of down. 
So I'll light this cigarette and smoke the night away, 
And I'll hope that saturday will be the day 
When everything feels okay. 

Ba da da da Ba da da da da 
Ba da da da da da da da da 

[I'm trying to quit smoking.]
            
Tabs too difficult? Try these video lessons and learn fast.


comments powered by Disqus
↑ Back to top | Tablatures and chords are parodies/interpretations of the original songs. You may use it for private study, scholarship, research or language learning purposes only