» » »

Nerf Herder, Do You Like Waffles Tabs (ver.2)

Artists:  A B C D E F G H I J K L M N O P Q R S T U V W X Y Z # 

Do You Like Waffles Tabs (ver.2)

Nerf Herder Tabs
 Rating:
4.6/5 (9 votes)
Do You Like Waffles lessons Tabs too difficult? Try these video lessons and learn fast
                -----------------------------------------------------------------------------
                        Do You Like Waffles - Nerf Herder
-----------------------------------------------------------------------------



Tuning:  Standard


In this tab i will show how i think its supposed to go and it's my first tab so 
don't go ape on me. XD

Legend

~ - let ring

Intro (This part is played after the words are spoken)
x1
e|-----------------------------------------------------------------|
B|-----------------------------------------------------------------|
G|-----------------------------------------------------------------|
D|-----------------------------------------------------------------|
A|-14--14-14-14--14-14---12-12-12---11--9--------------------------|
E|-12--12-12-12--12-12---10-10-10---9---7--------------------------|

Chorus
x3
e|-----------------------------------------------------------------|
B|-----------------------------------------------------------------|
G|-----------------------------------------------------------------|
D|-----------------4-7---------------------------------------------|
A|------4-7--5-5-5-------------------------------------------------|
E|-5--5------------------------------------------------------------|

x1
e|-----------------------------------------------------------------|
B|-----------------------------------------------------------------|
G|-----------------------------------------------------------------|
D|-9--9-9-9--9-9---7-7-7-------------------------------------------|
A|-7--7-7-7--7-7---5-5-5-------------------------------------------|
E|-----------------------------------------------------------------|

x3
e|-----------------------------------------------------------------|
B|-----------------------------------------------------------------|
G|-----------------------------------------------------------------|
D|-----------------4-7---------------------------------------------|
A|------4-7--5-5-5-------------------------------------------------|
E|-5--5------------------------------------------------------------|

Outro
x1
e|-----------------------------------------------------------------|
B|-----------------------------------------------------------------|
G|-----------------------------------------------------------------|
D|-9--9-9-9--9-9---7-7-7-------------------------------------------|
A|-7--7-7-7--7-7---5-5-5---7~--------------------------------------|
E|-------------------------5~--------------------------------------|


Enjoy!!!
            
Submit corrections

comments powered by Disqus
↑ Back to top | Nerf Herder Tabs for Do You Like Waffles. Lyrics for acoustic guitar and electric guitar. Tablatures and chords are parodies/interpretations of the original songs. You may use it for private study, scholarship, research or language learning purposes only