» » »

Nerf Herder, Do You Like Waffles Tabs (ver.1)

Artists:  A B C D E F G H I J K L M N O P Q R S T U V W X Y Z # 

Do You Like Waffles Tabs (ver.1)

Nerf Herder Tabs
 Rating:
3.6/5 (5 votes)
Do You Like Waffles lessons Tabs too difficult? Try these video lessons and learn fast
1
                got the lead part from the other tab but i corrected it xP


w8 til the end of the first part

/--------------------------------------------|
/--------------------------------------------|
/--------------------------------------------|
/--------------------------------------------|
/-14---14-14--14---14---12---12-12---11--9---|
/-12---12-12--12---12---10---10-10---9---7---|

then the 2nd rift

/----------------------------------------------|
/----------------------------------------------|
/----------------------------------------------|
/-----------------------4--7-------------------|
/-------4--7----5-5-5-5------------------------|
/-5--5-----------------------------------------|

fun song to listen to and it makes me kinda stoned =P
            
Submit corrections

comments powered by Disqus
↑ Back to top | Nerf Herder Tabs for Do You Like Waffles. Lyrics for acoustic guitar and electric guitar. 1 Tablatures and chords are parodies/interpretations of the original songs. You may use it for private study, scholarship, research or language learning purposes only