>
 >
Rockstar

Rockstar Guitar Tabs

N.E.R.D. - Rockstar chords, tabs, tablatures, lyrics

Guitar lessons | Add/correct | Request | Top 50 tabs Artists:  A B C D E F G H I J K L M N O P Q R S T U V W X Y Z 0-9

Rockstar Guitar Tabs – N.E.R.D.

CD, Sheet music, Poster

Do you like Rockstar? Share with your friends now
TabsTabs v2
-------------------------------------------------------------------------------
			     SONG NAME - Band Name
-------------------------------------------------------------------------------

Tuning:EADGBE

			
INTRO
		     X4
e|-------------------|
B|-------------------|
G|-------------------|
D|-2--2-2--2-2-------|
A|-2--2-2--2-2-------|
E|-0--0-0--0-0-------|


e|----------------------|-------------------|
B|-----8--7--7--7-7-7-7-|----8--7--7--7-7---|
G|----------------------|-------------------|
D|----------------------|-------------------|
A|----------------------|-------------------|
E|--0-------------------|-0-----------------|

e|----------------------|
B|-----8--7--7--7-7-7-7-|
G|----------------------|
D|----------------------|
A|----------------------|
E|--0-------------------|

		     X2
e|-------------------|
B|-------------------|
G|-------------------|
D|-2--2-2--2-2-------|
A|-2--2-2--2-2-------|
E|-0--0-0--0-0-------|


e|----------------------|-----------------------|
B|-----8--7--7--7-7-7-7-|----8--7--7--7-7-------|
G|----------------------|-----------------------|
D|----------------------|-----------------------|
A|----------------------|---------------------5-|
E|--0-------------------|-0-----------------7---|

e|----------------------|
B|-----8--7--7--7-7-7-7-|
G|----------------------|
D|----------------------|
A|--7-------------------|
E|----------------------|

		     X2
e|-------------------|
B|-------------------|
G|-------------------|
D|-2--2-2--2-2-------|
A|-2--2-2--2-2-------|
E|-0--0-0--0-0-------|


VERSE
e|----------------------|-----------------------|
B|-----8--7--7--7-7-7-7-|----8--7--7--7-7-------|
G|----------------------|-----------------------|
D|----------------------|-----------------------|
A|----------------------|---------------------5-|
E|--0-------------------|-0-----------------7---|

e|----------------------|
B|-----8--7--7--7-7-7-7-|
G|----------------------|
D|----------------------|
A|--7-------------------|
E|----------------------|

		     X2
e|-------------------|
B|-------------------|
G|-------------------|
D|-2--2-2--2-2-------|
A|-2--2-2--2-2-------|
E|-0--0-0--0-0-------|

e|----------------------|-----------------------|
B|-----8--7--7--7-7-7-7-|----8--7--7--7-7-------|
G|----------------------|-----------------------|
D|----------------------|-----------------------|
A|----------------------|---------------------5-|
E|--0-------------------|-0-----------------7---|

e|----------------------|
B|-----8--7--7--7-7-7-7-|
G|----------------------|
D|----------------------|
A|--7-------------------|
E|----------------------|

		     X2
e|-------------------|
B|-------------------|
G|-------------------|
D|-2--2-2--2-2-------|
A|-2--2-2--2-2-------|
E|-0--0-0--0-0-------|


BRIDGE same as verse

VERSE same as the first

BRIDGE same as verse

VERSE same as the first


CHORUS

e|-------------------------|-12--------------|
B|--------------------8-10-|----12-11b-10b---|
G|----------------7-9------|---------------7-|
D|--------7-8---9----------|-----------------|
A|-7-9-10------------------|-----------------|
E|-------------------------|-----------------|


		     X2
e|-------------------|
B|-------------------|
G|-------------------|
D|-2--2-2--2-2-------|
A|-2--2-2--2-2-------|
E|-0--0-0--0-0-------|



MIDDLE

e|----------------------|-----------------------|
B|-----8-8--------7-7---|-----------------------|
G|----------------------|-----------------------|
D|----------------------|-----------------------|
A|----------------------|-----------------------|
E|----------------------|-----------------------|

e|----------------------|-----------------------|
B|----------------------|-----------------------|
G|--9-9-----------------|--9-9-------------7-7--|
D|----------------------|-----------------------|
A|----------------------|-----------------------|
E|----------------------|-----------------------|

e|----------------------|
B|--10-10---------------|
G|----------------------|
D|----------------------|
A|----------------------|
E|----------------------|

The above section follows the coral lead 
with the last 2 bars played under the section below
leading back into the verse. 
		     X2
e|-------------------|
B|-------------------|
G|-------------------|
D|-2--2-2--2-2-------|
A|-2--2-2--2-2-------|
E|-0--0-0--0-0-------|


VERSE

BRIDGE

CHORUS

MIDDLE

BRIDGE

FIN.


Comments yada yada.

************************************

| /   slide up
| \   slide down
| h   hammer-on
| p   pull-off
| ~   vibrato
| +   harmonic
| x   Mute note
| b   Bend
| pb  Pre-bend
| br  Bend release
| pbr Pre-bend release
| brb Bend release bend

************************************





Comments


Popular N.E.R.D. tabs & chords
Backseat Love Bass Tabs
Happy Bass Tabs
Hot N Fun Bass Tabs
She Wants To Move 2 Bass Tabs
You Know What 2 Bass Tabs
Hypnotize U Chords
Maybe 2 Chords
Provider Intro Chords
Anti Matter Tabs
You Know What Ukulele


Song lyrics



↑ Back to top | Tablatures and chords are parodies/interpretations of the original songs. You may use it for private study, scholarship, research or language learning purposes only
© 2014 AZChords.com Contact us | Privacy policy | DMCA | Add/correct tabs | Request tabs | Top 50 tabs