» » »

N.E.R.D., Rock Star Bass tabs (ver.1)

Artists:  A B C D E F G H I J K L M N O P Q R S T U V W X Y Z # 

Rock Star Bass tabs (ver.1)

N.E.R.D. Tabs
 Rating:
4/5 (4 votes)
Rock Star lessons Tabs too difficult? Try these video lessons and learn fast
                 
This is done completly by memory(mines not great) so chances are
there is a few mistakes.Its also from the live version so there is probably
a lot of variations(if not completly different) from the retail album.
 
Intro
 
G----------------
D----------------
A----------------
E32211-32211-----
 
 
Verse/Chorus
 
G----------------------------------
D----------------------------------
A----------------------------------
E0------0------0------32211-32211--
 
 
(You think that you can get away with it)
 
G-----------------------------------
D--------------------5-4-3-2-1------
A----------1-2-3-4-5----------------
E1-2-3-4-5--------------------------
 
 
Well thats all enjoy!!!
            
Submit corrections

comments powered by Disqus
↑ Back to top | N.E.R.D. Bass for Rock Star. Lyrics for acoustic guitar and electric guitar. Tablatures and chords are parodies/interpretations of the original songs. You may use it for private study, scholarship, research or language learning purposes only