» » »

The Needle And The Damage Done Tabs (ver.3)

Artists:  A B C D E F G H I J K L M N O P Q R S T U V W X Y Z # 

The Needle And The Damage Done Tabs (ver.3)

Neil Young
Rating:
0/5 (0 votes)

Hard to play? Try these video lessons and learn fast.
                D
|---------2---------0---------------------------------0---------------------------------0--------------------------|
|------------------------3-------3----------3-----------3--------3------------3------------3-------3------------|
|----------------------------2--------------------2----------2---------------------0-------------0----------------|
|----0--------0-----------------------------------------------------------------------------------------------------|
|----------------------------------------3--------------------------------2-----------------------------------------|
|--------------------------------------------------------------------------------------------------------------------|

                                                 C
|--------------------0--------------------------------------------------------------------------------------------------------|
|---------3----------------3----3-----------1-----------1---------1----------1---------1---------1-------1---------1--|
|--------------0--------------0-----------------------------------------0h2--------3---------2--------0-----------------|
|-------------------------------------------------0h2---------3-------------------------------------------------3---------|
|--1-------------------------------------3----------------------------------------------------------------------------------|
|----------------------------------------------------------------------------------------------------------------------------|

                                                           E
|------------------------------------------------------------------------------------------------------------------------------|
|---------0---------0-------0----------0------------0------------0--------------0---------0-------------------------------|
|----2-------------------------------------------1----------------------------------------------------------------------------|
|-------------2----------------------------------------------------------2/4-----------2-------------------------------------|
|-----------------------2----------------------------------0h2---------------------------------------------------------------|
|-----------------------------------0------------------------------------------------------------------------------------------|
        repeat untill end of song
                 

 Im Pretty Sure its 100% correct let me know if you think it isnt.... enjoy!
                                  PLEASE RATE MY TAB!!!!
            
Hard to play? Try these video lessons and learn fast. | Correct




comments powered by Disqus
↑ Back to top | Tablatures and chords are parodies/interpretations of the original songs. You may use it for private study, scholarship, research or language learning purposes only