» » »

Neil Young, Keep On Rockin' In The Free World Tabs (ver.1)

Artists:  A B C D E F G H I J K L M N O P Q R S T U V W X Y Z # 

Keep On Rockin' In The Free World Tabs (ver.1)

Neil Young Tabs
 Rating:
4/5 (4 votes)
Keep On Rockin' In The Free World lessons Tabs too difficult? Try these video lessons and learn fast
                (PEARL JAM VERSION USE POWER CHORDS)

Order:
					
Verse1
Chorus (w\interlude)
Verse2
Chorus (w\interlude)
Solo
Verse3 (different see below)
Chorus (No interlude)


whole song done with Neil Young distortion

Verse 1+2
    Em     D   C
e---------2-2-0-0-|
B---------3-3-1-1-| 
G---------2-2-0-0-|   8x      
D-2-2-2-2-0-0-2-2-|  
A-2-2-2-2-----3-3-| 
E-0-0-0-0-----0-0-|
Chorus

     G       D         C       Em
e-3-3-3-3-2-2-2-2-0-0-0-0-0-0-0-0-|
B-3-3-3-3-3-3-3-3-1-1-1-1-1-1-0-0-| 
G-0-0-0-0-2-2-2-2-0-0-0-0-0-0-0-0-|   4x
D-0-0-0-0-0-0-0-0-2-2-2-2-2-2-2-2-|  
A-2-2-2-2---------3-3-3-3-3-3-2-2-|  

E-3-3-3-3---------0-0-0-0-0-0-0-0-|
Interlude comes after each chorus
   G
e-3-3-0-0-0-0-|
B-3-3-2-2-2-2-| 
G-0-0-2-2-2-2-|      
D-0-0-2-2-2-2-|   3x
A-2-2-0-0-0-0-| 
E-3-3---------|
=0D
Last Verse is different
e---------------------------------|
B---------------------------------| 
G---------------------------------|  
D---------------------------------|   8x
A-----------------5-5-5-5-3-3-3-3-| 
E-0-0-0-0-0-0-0-0-----------------|
=0D

Lyrics-
Colors on the street   

Red, white, and blue
People shuffling their feet 

People sleeping in their shoes
There's a warning sign in the road ahead
There's a lot of people saying we'd be better off dead
Don't feel like Satan, but I am to them
So I try Forget them any way I can
Keep on rocking in the free world
keep on rocking in the free world
keep on rocking in the free world
keep on rocking in the free world
I see a girl in the night 

with a baby in her hands
Under an old street light
near a garbage can
Now she put her kid away, she's gone to get a hit
She hates her life, and what she's done with it
That's one more kid, that'll never go to school
Never get to fall in love, never get to be cool
Keep on rocking in the free world
keep on rocking in the free world
keep on rocking in the free world
keep on rocking in the free world

(Solo)

There's a thousand points of light
For the homeless man
There's a kinder, gentler machine gun hand
There's department stores, and toilet paper
Styrofoam garbage for the Ozone layer
There's a man of the people, says people alive
Got fuel to burn, got roads to drive
Keep on rocking in the free world
keep on rocking in the free world
keep on rocking in the free world
keep on rocking in the free world

 

 
Ta
            
Submit corrections

comments powered by Disqus
↑ Back to top | Neil Young Tabs for Keep On Rockin' In The Free World. Lyrics for acoustic guitar and electric guitar. Tablatures and chords are parodies/interpretations of the original songs. You may use it for private study, scholarship, research or language learning purposes only