» » »

Neil Young, Hey Hey My My Bass tabs (ver.3)

Artists:  A B C D E F G H I J K L M N O P Q R S T U V W X Y Z # 

Hey Hey My My Bass tabs (ver.3)

Neil Young Tabs
Rating:
0/5 (0 votes)
Hey Hey My My lessons Tabs too difficult? Try these video lessons and learn fast
                Hey Hey, My My (Into the Black)
Neil Young


----BASS LINE ---------------------------------

G|--------------|------------|---------|---------|
D|--------------|------------|---------|---------|
A|------------5-|------------|---------|---------|
E|--5---5-7-8---|---7-5-3-5--|---5-5-5-|---5-5-5-|	x2
    A                            A         A
                                 

G|----------------|------------|---------|---------|
D|----------------|---7--------|---------|---------|
A|-----------7-10-|-----10-7---|---------|---8-8-8-|
E|--8---8-10------|----------5-|---5-5-5-|---------|
    C                              A         F

G|--------------|------------|---------|---------|
D|--------------|------------|---------|---------|
A|------------5-|------------|---------|---------|
E|--5---5-7-8---|---7-5-3-5--|---5-5-5-|---5-5-5-|	
    A                            A         A

---------------------------------------------------

Thanks.
            

comments powered by Disqus
↑ Back to top | Neil Young Bass for Hey Hey My My. Lyrics for acoustic guitar and electric guitar. Tablatures and chords are parodies/interpretations of the original songs. You may use it for private study, scholarship, research or language learning purposes only