>
 >
Fermented Offal Discharge

Fermented Offal Discharge Guitar Tabs

Necrophagist - Fermented Offal Discharge chords, tabs, tablatures, lyrics

Guitar lessons | Add/correct | Request | Top 50 tabs Artists:  A B C D E F G H I J K L M N O P Q R S T U V W X Y Z 0-9

Fermented Offal Discharge Guitar Tabs – Necrophagist

CD, Sheet music, Poster

Do you like Fermented Offal Discharge? Share with your friends now
Bass TabsTabs
------------------------------------------------
------------------------------------------------

                            FERMENTED OFFAL DISCHARGE
                           As recorded by Necrophagist
                   (From the 1999 Album ONSET OF PUTREFACTION)

Music by Muhammed Suicmez

         B5/F#                 E5                  C5/G                 A5/E
      2 2 4 x x x          0 7 9 x x x          3 3 5 x x x          0 0 2 x x x

Gtr I (D G C F A D) - 'Gtr1'
Gtr II (D G C F A D) - 'Gtr2'
Gtr III (D G C F A D) - 'Gtr3'
Gtr IV (D G C F A D) - 'Gtr 4'

 Intro
  Fast Death Metal Q=223
  N.C.                         Bbm                               A#b5/E
 12/8                                 4/4
  Gtr I
   PM-----------------------|  ~
   |-3-| |-3-| |-3--|  |--3--|
   E E E E E E E  E E  E  E  E H        H                      T E S. Q
|-----------------------------------||-----------------------------------|
|-----------------------------------||-----------------------------------|
|-----------------------------------||---------------------------9-------|
|-----------------------------------||---------------------------8-------|
|------------------------------4----||---------------------------7-------|
|--0-0-0-0-0-0-0--0-0--0--0--0-6----||-----------------------------------|
|
| Gtr II
|  PM-----------------------|  ~
|  |-3-| |-3-| |-3--|  |--3--|
|  E E E E E E E  E E  E  E  E H        H                      T E S. Q
|-----------------------------------||-----------------------------------|
|-----------------------------------||-----------------------------------|
|-----------------------------------||---------------------------9-------|
|------------------------------3----||---------------------------8-------|
|-----------------------------------||---------------------------7-------|
|--0-0-0-0-0-0-0--0-0--0--0--0------||-----------------------------------|
|
| Gtr III
|  |-3-| |-3-| |-3--|  |--3--|                       |--4:3--|
|  E E E E E E E  E E  E  E  E H        S  S S  S S. S S  S  S   E S. Q
|----------7---9-13-9---------------||------------9h13p9-12--------------|
|--------8---8--------11------------||---------11-----------11-----------|
|------9-----------------10---------||-------9-------------------9-------|
|----9----------------------11-8----||----11-----------------------------|
|-10--------------------------------||-13--------------------------------|
|-----------------------------------||-----------------------------------|


 Pre-Verse
  N.C.
  Gtrs I, II
    PM--|   PM--|     PM--|   PM--|
  E E E E E E E E   E E E E E E E E
|-----------------|-----------------|
|-----------------|-----------------|
|-----------------|-----------------|
|-----------------|-----------------|
|-2-------3-------|-2-------1-------|
|---0-2-0---0-2-0-|---0-2-0---0-3-0-|


    PM--|   PM--|       PM|   PM|       PM--|
  E E E E E E E E   E E E E E E E E   E E E E E E E E
|-----------------|-----------------|-----------------|
|-----------------|-----------------|-----------------|
|-----------------|-----------------|-----------------|
|-----------------|-8---------------|---------4-------|
|-2-------3-------|---7-----7-----6-|-2---------3-----|
|---0-2-0---0-2-0-|-----6-0---0-6---|---0-2-0-----2-0-|


          Q=225
             D#5/Bb                             D#5/Bb
 2/4        4/4
  E E E E    E E H.        Wx2          Q  Q  E E Q
|---------||-------------|------------|--------------|
|---------||-------------|------------|--------------|
|---------||-3-----------|------------|---------3----|
|---------||-1-----------|------------|---------1----|
|-3-------||-1-----------|------------|---------1----|
|---0-3-0-||-------------|------------|--------------|


                                      Q=224
  N.C.                                                  B5/C5/N.C.    (G#m)
  Gtr I
    PM--|   PM--|     PM--|   PM--|     PM--|   PM------------------|
  E E E E E E E E   E E E E E E E E   E E E E E E E E   Q  Q  S S S S  Q
|-----------------|-----------------|-----------------|----------------------|
|-----------------|-----------------|-----------------|----------------------|
|-----------------|-----------------|-----------------|----------------------|
|-----------------|-----------------|-----------------|-4--5----------[8]----|
|-2-------1-------|-2-------1-------|-2-------3-------|-2--3-----------------|
|---0-2-0---0-2-0-|---0-2-0---0-2-0-|---0-2-0---0-3-0-|-2--3--0-0-0-0--------|
|
| Gtr II
|   PM--|   PM--|     PM--|   PM--|     PM--|   PM------------------|
| E E E E E E E E   E E E E E E E E   E E E E E E E E   Q  Q  S S S S  Q
|-----------------|-----------------|-----------------|----------------------|
|-----------------|-----------------|-----------------|----------------------|
|-----------------|-----------------|-----------------|---------------[6]----|
|-----------------|-----------------|-----------------|-4--5-----------------|
|-2-------1-------|-2-------1-------|-2-------3-------|-2--3-----------------|
|---0-2-0---0-2-0-|---0-2-0---0-2-0-|---0-2-0---0-3-0-|-2--3--0-0-0-0--------|


   Verse
    N.C.
   8/8
    PM----------------------------|         PM--------|   PM
    S S S S S S S S S S S S S S S S    E    S S S S S S E E E E
||----------------------------------|---------------------------|
||o---------------------------------|---------------------------|
||----------------------------------|---------------------------|
||----------------------------------|---------------------------|
||o---------------------------------|-[6]---------------1---2-3-|
||--3-3-3-3-3-3-3-3-2-3-3-3-3-3-3-3-|-------3-3-3-3-3-3---0-----|
|
|   PM----------------------------|         PM--------|   PM
|   S S S S S S S S S S S S S S S S    S  S S S S S S S E E E E
||----------------------------------|---------------------------|
||o---------------------------------|---------------------------|
||----------------------------------|---------------------------|
||----------------------------------|-[5]s4---------------------|
||o---------------------------------|-------------------1---2-3-|
||--3-3-3-3-3-3-3-3-2-3-3-3-3-3-3-3-|-------3-3-3-3-3-3---0-----|


  PM------------|       PM--------|     PM    PM|
  S S S S S S S S  E    S S S S S S   E E E E E E E E
|-----------------------------------|------------------|
|-----------------------------------|------------------|
|-----------------------------------|------------------|
|-----------------------------------|-----2-5----------|
|-----------------[6]---------------|-1-----------2-3--|
|-3-3-3-3-3-3-3-3-------3-3-3-3-3-3-|---0-----0-1------|
|
| PM------------|       PM--------|     PM    PM|
| S S S S S S S S  S  S S S S S S S   E E E E E E E E
|-----------------------------------|------------------|
|-----------------------------------|------------------|
|-----------------------------------|------------------|
|-----------------[5]s4-------------|------------------|
|-----------------------------------|-1---3-6-----2-3--|
|-3-3-3-3-3-3-3-3-------3-3-3-3-3-3-|---0-----2-0------|


  N.C.
  Gtrs I, II
  PM----------------------------|         PM----|   PM
  S S S S S S S S S S S S S S S S    Q    S S S S E E E E
|---------------------------------|-----------------------|
|---------------------------------|-----------------------|
|---------------------------------|-----------------------|
|---------------------------------|-[8]-------------------|
|---------------------------------|---------------1---2h3-|
|-0-0-0-0-0-0-0-0-2-2-2-2-0-0-0-0-|-------0-0-0-0---0-----|
|
| PM----------------------------|         PM----|   PM
| S S S S S S S S S S S S S S S S    E. S S S S S E E E E
|---------------------------------|-----------------------|
|---------------------------------|-----------------------|
|---------------------------------|-----------------------|
|---------------------------------|-[5]-------------------|
|---------------------------------|---------------1---2h3-|
|-0-0-0-0-0-0-0-0-2-2-2-2-0-0-0-0-|-----0-0-0-0-0---0-----|


  PM----------------------------|     PM    PM|
  S S S S S S S S S S S S S S S S   E E E E E E E E
|---------------------------------|-------------------||
|---------------------------------|------------------o||
|---------------------------------|-------------------||
|---------------------------------|-------------2-5---||
|---------------------------------|-1---2h3----------o||
|-0-0-0-0-0-0-0-0-2-2-2-2-0-0-0-0-|---0-----0-1-------||
|
| PM----------------------------|     PM    PM|
| S S S S S S S S S S S S S S S S   E E E E E E E E
|---------------------------------|-------------------||
|---------------------------------|------------------o||
|---------------------------------|-------------------||
|---------------------------------|-------------------||
|---------------------------------|-1---2-3-----3-6--o||
|-0-0-0-0-0-0-0-0-2-2-2-2-0-0-0-0-|---0-----2-0-------||


  B5/C5/N.C.  G5 G     N.C.
 5/4                  4/4                                9/8
  PM    PM----|                                           PM  PM|   PM|
        |-3-|
  Q  Q  E E E Q  Q     S S S S S S S S S S S S S S S S    E E E E E E E E E
|-------------------||---------------------------------||---------------------|
|-------------------||---------------------------------||---------------4-5---|
|-------------------||-------------------------4-4-4-4-||---4-----3-----------|
|-4--5-----------5--||-5-5-5-5-5-5-5-5-7-7-7-7---------||-5---2-4---2-5-------|
|-2--3--------5--2--||---------------------------------||---------------------|
|-2--3--0-0-0-3--3--||---------------------------------||---------------------|
|
| PM    PM----|                                           PM  PM|   PM|
|       |-3-|
| Q  Q  E E E Q  Q     S S S S S S S S S S S S S S S S    E E E E E E E E E
|-------------------||---------------------------------||---------------------|
|-------------------||---------------------------------||---------------------|
|-------------------||---------------------------------||---------------------|
|-4--5-----------5--||---------------------------------||---------------------|
|-2--3--------5--2--||-2-2-2-2-2-2-2-2-3-3-3-3-5-5-5-5-||---2-----1-----2-3---|
|-2--3--0-0-0-3--3--||---------------------------------||-3---0-2---0-3-------|


 Bridge 1
  B5/C5/G       B5/F#  D#5/BN.C.
 5/4
  PM               PM|    PM---------
                          |-3-|
  Q  W          Q  E E Q  E E E Q
|-------------|--------------------||
|-------------|--------------------||
|-------------|--------------------||
|-4--5--------|-4------1-----------||
|-2--3--------|-2--2-2-1-----------||
|-2--3--------|-2--2-2----0-0-0-0--||
|
| PM               PM|    PM---------
|                         |-3-|
| Q  W          Q  E E Q  E E E Q
|-------------|--------------------||
|-------------|--------------------||
|-------------|--------------------||
|-4--5--------|-4------1-----------||
|-2--3--------|-2--2-2-1-----------||
|-2--3--------|-2--2-2----0-0-0-0--||


  Q=230
 6/8                      8/8
 -----------|   PM         PM------------|
  S S S S S S S S S S E    S S S S S S S S S S E S S E
|-----------------------||-----------------------------|
|-----------------------||-----------------------------|
|-----------------5h8p5-||-----------------4h5p4-3h4p3-|
|-----------------------||-----------------------------|
|-----------------------||-----------------------------|
|-0-0-0-0-0-0-0-0-------||-0-0-0-0-0-0-0-0-------------|
|
|-----------|   PM         PM------------|
| S S S S S S S S S S E    S S S S S S S S S S E S S E
|-----------------------||-----------------------------|
|-----------------------||-----------------------------|
|-----------------------||-----------------------------|
|-----------------------||-----------------------------|
|-----------------3h6p3-||-----------------2h3p2-1h2p1-|
|-0-0-0-0-0-0-0-0-------||-0-0-0-0-0-0-0-0-------------|


 9/8
  PM------------------------|
  S S S S S S S S S S S S S S S S E
|-----------------------------------||
|-----------------------------------||
|-----------------------------5h8p5-||
|-----------------------------------||
|-----------------------------------||
|-0-0-0-0-0-0-0-0-0-0-0-0-0-0-------||
|
| PM------------------------|
| S S S S S S S S S S S S S S S S E
|-----------------------------------||
|-----------------------------------||
|-----------------------------------||
|-----------------------------------||
|-----------------------------3h6p3-||
|-0-0-0-0-0-0-0-0-0-0-0-0-0-0-------||


                              Q=224
 8/8                            4/4
  PM------------|                  PM--|   PM--|
  S S S S S S S S S S E S S E    E E E E E E E E
|-----------------------------||------------------|
|-----------------------------||------------------|
|-----------------4h5p4-3h4p3-||------------------|
|-----------------------------||------------------|
|-----------------------------||-3-------1--------|
|-0-0-0-0-0-0-0-0-------------||---0-0-0---0-0-0--|
|
| PM------------|                  PM--|   PM--|
| S S S S S S S S S S E S S E    E E E E E E E E
|-----------------------------||------------------|
|-----------------------------||------------------|
|-----------------------------||------------------|
|-----------------------------||------------------|
|-----------------2h3p2-1h2p1-||-3-------1--------|
|-0-0-0-0-0-0-0-0-------------||---0-0-0---0-0-0--|


                                      13/8
    PM  PM|   PM|     PM--|   PM--|      PM  PM|   PM|   PM|
  E E E E E E E E   E E E E E E E E    E E E E E E E E E E E E  E
|-----------------|-----------------||-----------------------------|
|-----------------|-----------------||-----------------------4-/5--|
|-----------4-----|-----------------||-----------4-----3-----------|
|---------5---2-5-|-----------------||---------5---2-4---2-5-------|
|-3---2-----------|-3-------1-------||-3---2-----------------------|
|---0---0---------|---0-0-0---0-0-0-||---0---0---------------------|
|
|   PM  PM|   PM|     PM--|   PM--|      PM  PM|   PM|   PM|
| E E E E E E E E   E E E E E E E E    E E E E E E E E E E E E  E
|-----------------|-----------------||-----------------------------|
|-----------------|-----------------||-----------------------------|
|-----------------|-----------------||-----------------------------|
|-----------------|-----------------||-----------------------------|
|-3---2-----2-----|-3-------1-------||-3---2-----2-----1-----2--3--|
|---0---0-3---0-3-|---0-0-0---0-0-0-||---0---0-3---0-2---0-3-------|


 Bridge 2
                           Q=200
  B5/C5/G        B5/F#  D#5/Bb
 5/4            3/4
  Gtr I
  PM                PM|      PM------------|
  Q  W           Q  E E Q    S S S S S S S S S S S S
|-------------||-----------|-------------------------|
|-------------||-----------|-------------------------|
|-------------||-----------|-------------------------|
|-4--5--------||-4------1--|-------------------------|
|-2--3--------||-2--2-2-1--|-----------------6h7p6h7-|
|-2--3--------||-2--2-2----|-0-0-0-0-0-0-0-0---------|
|
| Gtr II
| PM                PM|      PM------------|
| Q  W           Q  E E Q    S S S S S S S S S S S S
|-------------||-----------|-------------------------|
|-------------||-----------|-------------------------|
|-------------||-----------|-------------------------|
|-4--5--------||-4------1--|-------------------------|
|-2--3--------||-2--2-2-1--|-----------------6h7p6h7-|
|-2--3--------||-2--2-2----|-0-0-0-0-0-0-0-0---------|


 4/4
  PM------------|
                  |---3---| |---3---|
  S S S S S S S S E   E   E E   E   E
|-------------------------------------|
|-------------------------------------|
|-------------------------------------|
|-------------------------------------|
|-----------------6h==9p==6-5h==7p==5-|
|-0-0-0-0-0-0-0-0---------------------|
|
| PM------------|
| S S S S S S S S S S   E   S S   E
|-------------------------------------|
|-------------------------------------|
|-------------------------------------|
|-------------------------------------|
|-----------------3h6p==3---2h3p==2---|
|-0-0-0-0-0-0-0-0---------------------|


  PM--------------------|
  S S S S S S S S S S S S S S S S   E E E E E E E E
|---------------------------------|-----------------|
|---------------------------------|-----------------|
|-------------------------8h9p8h9-|-9---------------|
|---------------------------------|---8---9-8-------|
|---------------------------------|-----7-----7-6-7-|
|-0-0-0-0-0-0-0-0-0-0-0-0---------|-----------------|
|
| PM--------------------|
| S S S S S S S S S S S S S S S S   E E E E E E E E
|---------------------------------|-----------------|
|---------------------------------|-----------------|
|---------------------------------|-5---------------|
|---------------------------------|---4---5-4-------|
|-------------------------6h7p6h7-|-----3-----3-2-3-|
|-0-0-0-0-0-0-0-0-0-0-0-0---------|-----------------|


  PM--------------------|
  S S S S S S S S S S S S S S S S
|-----------------------------------|
|-----------------------------------|
|-----------------------------------|
|-----------------------------------|
|-------------------------6h7p6h7---|
|-0-0-0-0-0-0-0-0-0-0-0-0-----------|
|
| PM--------------------|
| S S S S S S S S S S S S S S S S
|-----------------------------------|
|-----------------------------------|
|-----------------------------------|
|-----------------------------------|
|-------------------------6h7p6h7---|
|-0-0-0-0-0-0-0-0-0-0-0-0-----------|


  PM------------|
                  |---3---| |---3---|
  S S S S S S S S E   E   E E   E   E
|-------------------------------------|
|-------------------------------------|
|-------------------------------------|
|-------------------------------------|
|-----------------6h==9p==6-5h==7p==5-|
|-0-0-0-0-0-0-0-0---------------------|
|
| PM------------|
| S S S S S S S S S S   E   S S   E
|-------------------------------------|
|-------------------------------------|
|-------------------------------------|
|-------------------------------------|
|-----------------3h6p==3---2h3p==2---|
|-0-0-0-0-0-0-0-0---------------------|


  PM--------------------|           PM----|          PM
  S S S S S S S S S S S S S S S S   S S S S E E  E E E  E
|---------------------------------|------------------------|
|---------------------------------|------------------------|
|-------------------------8h9p8h9-|-------------10---------|
|---------------------------------|----------------9---10--|
|---------------------------------|------------------7-----|
|-0-0-0-0-0-0-0-0-0-0-0-0---------|-0-0-0-0-6S7------------|
|
| PM--------------------|           PM----|          PM
| S S S S S S S S S S S S S S S S   S S S S Q    E E E  E
|---------------------------------|------------------------|
|---------------------------------|------------------------|
|---------------------------------|--------------5---------|
|---------------------------------|----------------4----5--|
|-------------------------6h7p6h7-|------------------2-----|
|-0-0-0-0-0-0-0-0-0-0-0-0---------|-0-0-0-0-3--------------|


    PM--------------------|
    S S S S S S S S S S S S S S S S
||----------------------------------|
||o---------------------------------|
||----------------------------------|
||----------------------------------|
||o-------------------------6h7p6h7-|
||--0-0-0-0-0-0-0-0-0-0-0-0---------|
|
|   PM--------------------|
|   S S S S S S S S S S S S S S S S
||----------------------------------|
||o---------------------------------|
||----------------------------------|
||----------------------------------|
||o-------------------------6h7p6h7-|
||--0-0-0-0-0-0-0-0-0-0-0-0---------|


  PM------------|                       PM--------------------|
                  |---3---| |---3---|
  S S S S S S S S E   E   E E   E   E   S S S S S S S S S S S S S S S S
|-------------------------------------|----------------------------------|
|-------------------------------------|----------------------------------|
|-------------------------------------|-------------------------8h9p8h9--|
|-------------------------------------|----------------------------------|
|-----------------6h==9p==6-5h==7p==5-|----------------------------------|
|-0-0-0-0-0-0-0-0---------------------|-0-0-0-0-0-0-0-0-0-0-0-0----------|
|
| PM------------|                       PM--------------------|
| S S S S S S S S S S   E   S S   E     S S S S S S S S S S S S S S S S
|-------------------------------------|----------------------------------|
|-------------------------------------|----------------------------------|
|-------------------------------------|----------------------------------|
|-------------------------------------|----------------------------------|
|-----------------3h6p==3---2h3p==2---|-------------------------6h7p6h7--|
|-0-0-0-0-0-0-0-0---------------------|-0-0-0-0-0-0-0-0-0-0-0-0----------|


  1.                   2.
  N.C.
       PM                      PM
   E E E E E E  E E      E  E  E  E  E  E E  E
|--------------------||------------------------|
|-10----------------o||-13---------------------|
|----8---9-8---------||----11----12-11---------|
|------7-----7-10-7--||-------10-------10-9-10-|
|-------------------o||------------------------|
|--------------------||------------------------|
|
|  E E E E E E  E E      E  E  E  E  E  E E  E
|--------------------||------------------------|
|-------------------o||------------------------|
|--5-----------------||--5---------------------|
|----4---5-4---------||-----4-----5--4---------|
|------3-----3--2-3-o||--------3--------3-2--3-|
|--------------------||------------------------|


   PM------|            PM------|
   E  E  E  E  Q  Q     E  E  E  E  Q   Q
|--------------------|---------------------|
|--------------------|-16------------------|
|----15-16-----------|----15-14------------|
|-17-------13-14-----|----------17-16------|
|--------------------|---------------------|
|--------------------|---------------------|
|
|  PM---|                     PM
|  E  E  E  E  Q  Q     E  E  E  E  Q   Q
|--------------------|---------------------|
|--------------------|---------------------|
|-----------4--------|--5------------------|
|-----4--5-----------|-----4-----5-[4]-----|
|--7-----------3-----|--------3------------|
|--------------------|---------------------|


   Verse
    Q=208
    N.C.                              C5/B5/F#
      PM  PM|   PM|                   PM------
    E E E E E E E E    E   E   E   E  Q  Q
||------------------|-----------------------||
||o-----------------|-----------------------||
||------------------|-----------------------||
||------------------|-----------------5--4--||
||o-2---1-----3-----|--2h==3---1h==2--3--2--||
||----0---0-2---0-2-|-----------------3--2--||
|
|     PM  PM|   PM|                   PM------
|   E E E E E E E E    E   E   E   E  Q  Q
||------------------|-----------------------||
||o-----------------|-----------------------||
||------------------|-----------------------||
||------------------|-----------------5--4--||
||o-2---1-----3-----|-[2]S[3]-[1]S[2]-3--2--||
||----0---0-2---0-2-|-----------------3--2--||


  N.C.
 8/8                                        6/8
 ----------------------------------------------------------|
  S S S S  S  S  S  S S S S S  S  S  S  S    S S S S S S S S  Q
|-----------------------------------------||-----------------------|
|-----------------------------------------||-----------------------|
|-8-8-8-8---------------------------------||-----------------------|
|----------8--9--8--9-5-5-5-5--9--9--9--9-||-8-9-8-9---------[9]---|
|-----------------------------------------||---------7-7-7-7-------|
|-----------------------------------------||-----------------------|
|
|----------------------------------------------------------|
| S S S S  S  S  S  S S S S S  S  S  S  S    S S S S S S S S  Q
|-----------------------------------------||-----------------------|
|-----------------------------------------||-----------------------|
|-----------------------------------------||-----------------------|
|-9-9-9-9---------------------------------||-----------------------|
|---------10-10-10-10-6-6-6-6-10-10-10-10-||-9-9-9-9-7-7-7-7-------|
|-----------------------------------------||-----------------[7]---|


  N.C.                              B5/C5/G
 4/4
    PM  PM|   PM|                   PM------
  E E E E E E E E    E   E   E   E  Q  Q
|-----------------|-----------------------||
|-----------------|-----------------------||
|-----------------|-----------------------||
|-----------------|-----------------4--5--||
|-2---1-----3-----|--2h==3---1h==2--2--3--||
|---0---0-2---0-2-|-----------------2--3--||
|
|   PM  PM|   PM|                   PM------
| E E E E E E E E    E   E   E   E  Q  Q
|-----------------|-----------------------||
|-----------------|-----------------------||
|-----------------|-----------------------||
|-----------------|-----------------4--5--||
|-2---1-----3-----|-[2]S[3]-[1]S[2]-2--3--||
|---0---0-2---0-2-|-----------------2--3--||


                                           1.
  N.C.                                                           N.C.
 8/8
 ---------------------------------------------------------|      PM
  S S S S  S  S  S  S S S S S  S  S  S  S   S S S S S S S S  Q   Q
|-----------------------------------------|--------------------------||
|-----------------------------------------|-------------------------o||
|-8-8-8-8---------------------------------|--------------------------||
|----------8--9--8--9-5-5-5-5--9--9--9--9-|-8-9-8-9---------[9]------||
|-----------------------------------------|---------7-7-7-7---------o||
|-----------------------------------------|----------------------0---||
|
|---------------------------------------------------------|      PM
| S S S S  S  S  S  S S S S S  S  S  S  S   S S S S S S S S  Q   Q
|-----------------------------------------|--------------------------||
|-----------------------------------------|-------------------------o||
|-----------------------------------------|--------------------------||
|-9-9-9-9---------------------------------|--------------------------||
|---------10-10-10-10-6-6-6-6-10-10-10-10-|-9-9-9-9-7-7-7-7---------o||
|-----------------------------------------|-----------------[7]--0---||


  2.
                  (A/C#N.C.                                  B5/F#
 10/8                               12/8
  PM------------|      PM------|       PM  PM|   PM|         PM
  S S S S S S S S  Q   S S S S Q     E E E E E E E E  E   E  Q
|---------------------------------||----------------------------||
|---------------------------------||----------------------------||
|---------------------------------||----------------------------||
|-8-9-8-8---------[9]-------------||-------------------------4--||
|---------------------------------||-2---1-----3------2h==3--2--||
|---------7-8-7-7------0-0-0-0-0--||---0---0-2---0-2---------2--||
|
| PM------------|      PM------|       PM  PM|   PM|         PM
| S S S S S S S S  Q   S S S S Q     E E E E E E E E  E   E  Q
|---------------------------------||----------------------------||
|---------------------------------||----------------------------||
|---------------------------------||----------------------------||
|---------------------------------||-------------------------4--||
|-9-9-9-9-7-7-7-7-[6]-------------||-2---1-----3-----[2]S[3]-2--||
|----------------------0-0-0-0-0--||---0---0-2---0-2---------2--||


  N.C.                                  C5/G
 10/8
    PM  PM|   PM----|     PM  PM|   PM--|
  E E E E E E E E E E   E E E E E E E E Q
|---------------------|----------------------|
|-----------------3-4-|----------------------|
|---------------4-----|----------------------|
|---------------------|-----------------5----|
|-3---3-----2---------|-2---1-----3-----3----|
|---0---0-2---0-------|---0---0-2---0-2-3----|
|
|   PM  PM|   PM----|     PM  PM|   PM--|
| E E E E E E E E E E   E E E E E E E E Q
|---------------------|----------------------|
|---------------------|----------------------|
|---------------------|----------------------|
|---------------------|-----------------5----|
|-3---3-----2-----5-6-|-2---1-----3-----3----|
|---0---0-2---0-7-----|---0---0-2---0-2-3----|


  N.C.                                                    B5/F#
 14/8                            12/8
  PM    PM  PM|   PM----|           PM  PM|   PM|         PM
  E E E E E E E E E E E E E  E    E E E E E E E E  E   E  Q
|------------------------------||----------------------------||
|------------------------------||----------------------------||
|------------------------------||----------------------------||
|---8-9---9-----8--------------||-------------------------4--||
|-7-----7---7-7-----------7h10-||-2---1-----3------2---3--2--||
|-----------------0-8-7-0------||---0---0-3---0-2---------2--||
|
| PM    PM  PM|   PM----|           PM  PM|   PM|         PM
| E E E E E E E E E E E E E  E    E E E E E E E E  E   E  Q
|------------------------------||----------------------------||
|------------------------------||----------------------------||
|------------------------------||----------------------------||
|------------------------------||-------------------------4--||
|---1-2---2-----1---------3h=6-||-2---1-----3-----[2]S[3]-2--||
|-0-----0---0-0---0-3-2-0------||---0---0-3---0-2---------2--||


  N.C.                                  C5/G
 10/8
    PM  PM|   PM----|     PM  PM|   PM--|
  E E E E E E E E E E   E E E E E E E E Q
|---------------------|--------------------|
|-----------------3-4-|--------------------|
|---------------4-----|--------------------|
|---------------------|-----------------5--|
|-3---3-----2---------|-2---1-----3-----3--|
|---0---0-2---0-------|---0---0-2---0-2-3--|
|
|   PM  PM|   PM----|     PM  PM|   PM--|
| E E E E E E E E E E   E E E E E E E E Q
|---------------------|--------------------|
|---------------------|--------------------|
|---------------------|--------------------|
|---------------------|-----------------5--|
|-3---3-----2-----5-6-|-2---1-----3-----3--|
|---0---0-2---0-7-----|---0---0-2---0-2-3--|


                                   Q
  N.C.
 8/8
  PM    PM  PM|     PM----|
  E E E E E E E E   E E E E E E Q
|-----------------|----------------|
|-----------------|----------------|
|-----------------|----------------|
|---8-9---9-----8-|----------------|
|-7-----7---7-7---|---------7------|
|-----------------|-0-8-7-0--------|
|
| PM    PM  PM|     PM----|
| E E E E E E E E   E E E E E E Q
|-----------------|----------------|
|-----------------|----------------|
|-----------------|----------------|
|-----------------|----------------|
|---1-2---2-----1-|---------3------|
|-0-----0---0-0---|-0-3-2-0--------|


   Breakdown
 =174
   6/8
      PM------------|         PM--------|       PM
    E E E S S S S S S   E E E S S S S S S   E E E E E E
||--------------------|-------------------|-------------|
||o-------------------|-------------------|-------------|
||--------------------|-------------------|-5-----------|
||--------------------|-------------------|---4---4-7-4-|
||o-1-----1-1-2-2-3-3-|-2-----1-1-2-2-3-3-|-----3-------|
||----0-2-------------|---0-0-------------|-------------|
|
|     PM------------|         PM--------|       PM
|   E E E S S S S S S   E E E S S S S S S   E E E E E E
||--------------------|-------------------|-------------|
||o-------------------|-------------------|-------------|
||--------------------|-------------------|-------------|
||--------------------|-------------------|-4-----------|
||o-1-----1-1-2-2-3-3-|-2-----1-1-2-2-3-3-|---3---3-6-3-|
||----0-2-------------|---0-0-------------|-----2-------|


  Bm  Cm    N.C.
          PM  PM----|     PM------------|
   E   E  E E S S S S   E E E S S S S S S
|---------------------|-------------------|
|---------------------|-------------------|
|---------------------|-------------------|
|-----------------4-4-|-------------------|
|--5--/6----3-6-6-----|-1-----1-1-2-2-3-3-|
|--7S==8--0-----------|---0-2-------------|
|
|         PM--------|     PM------------|
|  E   E  E E S S S S   E E E S S S S S S
|---------------------|-------------------|
|---------------------|-------------------|
|---------------------|-------------------|
|---------------------|-------------------|
|-[5]S[6]---2-6-6-3-3-|-1-----1-1-2-2-3-3-|
|---------0-2---------|---0-2-------------|


                      Bm  Cm    N.C.
        PM--------|           PM  PM----|       PM
  E E E S S S S S S    E   E  E E S S S S   E E E E E E
|-------------------|---------------------|--------------||
|-------------------|---------------------|-------------o||
|-------------------|---------------------|-5------------||
|-------------------|-----------------4-4-|---4---4-7-4--||
|-2-----1-1-2-2-3-3-|--5--/6----3-6-6-----|-----3-------o||
|---0-0-------------|--7--/8--0-----------|--------------||
|
|       PM--------|           PM--------|       PM
| E E E S S S S S S    E   E  E E S S S S   E E E E E E
|-------------------|---------------------|--------------||
|-------------------|---------------------|-------------o||
|-------------------|---------------------|--------------||
|-------------------|---------------------|-4------------||
|-2-----1-1-2-2-3-3-|-[5]S[6]---2-6-6-3-3-|---3---3-6-3-o||
|---0-0-------------|---------0-2---------|-----2--------||


  N.C.  EmF#Gm   D#5/N.C.
  Gtrs I, II
    PM------|      PM------|     PM------|     PM--------------------|
  E E E E E  E   E E E E E E   E E E E E E   E E E E E E   E E E E E E
|--------------|-------------|-------------|-------------|--------------|
|--------------|-------------|-------------|-------------|--------------|
|--------------|-------------|-------------|-------------|--------------|
|-------5-7--8-|-1-----1-2-3-|-1-----1-2-3-|-1-----1-2-3-|-2-3-0-2-3-2--|
|-7-----7-9-10-|-1-----1-2-3-|-1-----1-2-3-|-1-----1-2-3-|-2-3-0-2-3-2--|
|---0-6--------|---0-0-------|---0-1-------|---0-0-------|--------------|


                                             1.,2.           3.
      PM------|     PM------|     PM--------------------|          PM--|
    E E E E E E   E E E E E E   E E E E E E   E E E E E E  3x E Q  E E E
||--------------|-------------|-------------|--------------||------------|
||o-------------|-------------|-------------|-------------o||------------|
||--------------|-------------|-------------|--------------||------------|
||--1-----1-2-3-|-1-----1-2-3-|-1-----1-2-3-|-2-3-0-2-3-2--||-1----------|
||o-1-----1-2-3-|-1-----1-2-3-|-1-----1-2-3-|-2-3-0-2-3-2-o||-1----0-1-2-|
||----0-0-------|---0-1-------|---0-0-------|--------------||------0-1-2-|


    N.C.                                                  Bm  Cm  N.C.
    Gtr I
      PM------------|         PM--------|       PM                PM  PM----|
    E E E S S S S S S   E E E S S S S S S   E E E E E E    E   E  E E S S S S
||--------------------|-------------------|-------------|----------------------|
||o-------------------|-------------------|-------------|----------------------|
||--------------------|-------------------|-5-----------|----------------------|
||--------------------|-------------------|---4---4-7-4-|-----------------4-4--|
||o-1-----1-1-2-2-3-3-|-2-----1-1-2-2-3-3-|-----3-------|--5--/6----3-6-6------|
||----0-2-------------|---0-0-------------|-------------|--7--/8--0------------|
|
|   Gtr II
|     PM------------|         PM--------|       PM                PM--------|
|   E E E S S S S S S   E E E S S S S S S   E E E E E E    E   E  E E S S S S
||--------------------|-------------------|-------------|----------------------|
||o-------------------|-------------------|-------------|----------------------|
||--------------------|-------------------|-------------|----------------------|
||--------------------|-------------------|-4-----------|----------------------|
||o-1-----1-1-2-2-3-3-|-2-----1-1-2-2-3-3-|---3---3-6-3-|-[5]S[6]---2-6-6-3-3--|
||----0-2-------------|---0-0-------------|-----2-------|---------0-2----------|


  N.C.
    PM------------|         PM--------|
  E E E S S S S S S   E E E S S S S S S
|-------------------|-------------------|
|-------------------|-------------------|
|-------------------|-------------------|
|-------------------|-------------------|
|-1-----1-1-2-2-3-3-|-2-----1-1-2-2-3-3-|
|---0-2-------------|---0-0-------------|
|
|   PM------------|         PM--------|
| E E E S S S S S S   E E E S S S S S S
|-------------------|-------------------|
|-------------------|-------------------|
|-------------------|-------------------|
|-------------------|-------------------|
|-1-----1-1-2-2-3-3-|-2-----1-1-2-2-3-3-|
|---0-2-------------|---0-0-------------|


  Bm  Cm    N.C.
          PM  PM----|       PM            PM|
   E   E  E E S S S S   E E E E E E     E E E E Q
|---------------------|--------------||--------------|
|---------------------|-------------o||--------------|
|---------------------|-5------------||--------------|
|-----------------4-4-|---4---4-7-4--||-5-----4------|
|--5--/6----3-6-6-----|-----3-------o||-----4--------|
|--7--/8--0-----------|--------------||---3----------|
|
|         PM--------|       PM            PM|
|  E   E  E E S S S S   E E E E E E     E E E E Q
|---------------------|--------------||--------------|
|---------------------|-------------o||--------------|
|---------------------|--------------||--------------|
|---------------------|-4------------||--------------|
|-[5]S[6]---2-6-6-3-3-|---3---3-6-3-o||-7-----6------|
|---------0-2---------|-----2--------||---0-6--------|


   Interlude
    Q=224
    N.C.
   8/8
    Gtrs I, II
      PM--|     PM|         PM|   PM|
    E E E E E E E E  3x E E E E E E E E
||-------------------||-----------------|
||o-----------------o||-----------------|
||-------------------||-----------------|
||----------4--------||-8---------------|
||o-2---------3-----o||---7-----7-----6-|
||----0-2-0-----2-0--||-----6-0---0-6---|


      PM--|     PM|         PM|   PM|         PM--|     PM|
    E E E E E E E E  3x E E E E E E E E     E E E E E E E E  3x
||-------------------||-----------------||-------------------||
||o-----------------o||-----------------||o-----------------o||
||-------------------||-----------------||-------------------||
||----------4--------||-8---------------||----------4--------||
||o-2---------3-----o||---7-----7-----6-||o-2---------3-----o||
||----0-2-0-----2-0--||-----6-0---0-6---||----0-2-0-----2-0--||


  Gtr I
      PM|   PM|         PM--|     PM|
  E E E E E E E E     E E E E E E E E  3x
|-----------------||-------------------||
|-----------------||o-----------------o||
|-----------------||-------------------||
|-8---------------||----------4--------||
|---7-----7-----6-||o-2---------3-----o||
|-----6-0---0-6---||----0-2-0-----2-0--||
|
| Gtr II
|     PM|   PM|         PM--|     PM|
| E E E E E E E E     E E E E E E E E  3x
|-----------------||-------------------||
|-----------------||o-----------------o||
|-----------------||-------------------||
|-8---------------||----------4--------||
|---7-----7-----6-||o-2---------3-----o||
|-----6-0---0-6---||----0-2-0-----2-0--||


      PM|   PM|             PM|    PM|
  E E E E E E E E      E  E E E  E E E E  7x
|-----------------||----------------------||
|-----------------||o--------------------o||
|-----------------||----------------------||
|-8---------------||---8------------------||
|---7-----7-----6-||o-----7------7-----6-o||
|-----6-0---0-6---||--------6-0----0-6----||
|
|     PM|   PM|             PM|    PM|
| E E E E E E E E      E  E E E  E E E E  7x
|-----------------||----------------------||
|-----------------||o--------------------o||
|-----------------||--11------------------||
|-8---------------||-----10-----10-----9--||
|---7-----7-----6-||o-------9-7----7-9---o||
|-----6-0---0-6---||----------------------||


 Guitar Solo Part 1 [03:02]
  Moderately Q=112
  B5/F#                                 E5                           A5/E
 4/4
  Gtrs I, II
                                                                      PM
    W                                    H.                      +E   E
|-------------------------------------|---------------------------------------|
|-------------------------------------|---------------------------------------|
|-------------------------------------|---------------------------------------|
|---4---------------------------------|--9-----------------------(9)--2-------|
|---2---------------------------------|--7-----------------------(7)--0-------|
|---2---------------------------------|--0-----------------------(0)--0-------|
|
| Gtr III
|   ~~~   T     T                                            ~~~
|                                                   |--3--|
|   H     S  S  S  E  +S   T  T  T  T    E   E.  S  S  S  S  Q.       S  T  T
|----------------------------------15-|-19--15--15-14h15p14-------------------|
|-------------------------------17----|---------------------17-------17-17-17-|
|-/11----16p11-16p11-(11)----16-------|---------------------------------------|
|-------------------------17----------|---------------------------------------|
|-------------------------------------|---------------------------------------|
|-------------------------------------|---------------------------------------|


  C5/G                                         B5/F#
   W                                            W
|--------------------------------------------|--------------------------------------|
|--------------------------------------------|--------------------------------------|
|--------------------------------------------|--------------------------------------|
|--5-----------------------------------------|--4-----------------------------------|
|--3-----------------------------------------|--2-----------------------------------|
|--3-----------------------------------------|--2-----------------------------------|
|
|  ~~~~~~~~~~~~~          ~~~~~~~~~~~~~~~~~~~                               ~~~~~
|  Q      E      S  T  T  Q.       +S   +S      Q      +S   +S      +S   S  H
|--------------------------------------------|-----------------------------24b26----|
|-19b20--19b20==19-19-19-19b20====(19)-(19)r-|-19b20--(19)-(19)b20r(19)-17----------|
|--------------------------------------------|--------------------------------------|
|--------------------------------------------|--------------------------------------|
|--------------------------------------------|--------------------------------------|
|--------------------------------------------|--------------------------------------|


  B5/F#                                       E5                                                         A5/E
                                                                                                           PM
    W                                          H.                                                 +E       E
|-------------------------------------------|-----------------------------------------------------------------|
|-------------------------------------------|-----------------------------------------------------------------|
|-------------------------------------------|-----------------------------------------------------------------|
|---4---------------------------------------|--9--------------------------------------------------(9)------2--|
|---2---------------------------------------|--7--------------------------------------------------(7)------0--|
|---2---------------------------------------|--0--------------------------------------------------(0)------0--|
|
|                             ~~~
|          |-----3-----|            |--3--|    |-------6-------|  |--3--|
|  +E      E  +E      +E   E  Q.    S  S  S    S   S  S  S  S  S  S  S  S  S  S     E     +E      +E      +E
|-(24)b26r24-(24)b26r(24)----------19-19-19-|-19--19-19-19-19-19-19-19-19-19-19b20-19b20r(19)b20r(19)b20r(19)-|
|-------------------------20-19-------------|-----------------------------------------------------------------|
|-------------------------------------------|-----------------------------------------------------------------|
|-------------------------------------------|-----------------------------------------------------------------|
|-------------------------------------------|-----------------------------------------------------------------|
|-------------------------------------------|-----------------------------------------------------------------|


  C5/G
   W
|---------------------------------------------------------------------------|
|---------------------------------------------------------------------------|
|---------------------------------------------------------------------------|
|--5------------------------------------------------------------------------|
|--3------------------------------------------------------------------------|
|--3------------------------------------------------------------------------|
|
|  |------6-------|  |------6-------|  |------6-------|  |------6-------|
|  S  S  S  S  S  S  S  S  S  S  S  S  S  S  S  S  S  S  S  S  S  S  S  S
|-------15----------------14----------------12----------------11-15-11------|
|-17-19----19-17-19-15-17----17-15-17-13-15----15-13-15-12-13----------13---|
|---------------------------------------------------------------------------|
|---------------------------------------------------------------------------|
|---------------------------------------------------------------------------|
|---------------------------------------------------------------------------|


  B5/F#
  Gtrs I, II
   W
   |
   /

  Gtr III
                                                         ~~~~
   |------6-------|  |------6-------|  |------6-------|
   S  S  S  S  S  S  S  S  S  S  S  S  S  S  S  S  S  S  Q
|-17-12-17-12----12-19-12-19-12----12-17-12-17-12-----------|
|-------------13----------------13----------------13--------|
|----------------------------------------------------14-16--|
|-----------------------------------------------------------|
|-----------------------------------------------------------|
|-----------------------------------------------------------|
|
| Gtr IV
|  W
|-----------------------------------------------------------|
|-----------------------------------------------------------|
|-----------------------------------------------------------|
|-----------------------------------------------------------|
|-----------------------------------------------------------|
|-----------------------------------------------------------|


    W
    |
    /

 ~~~~~~
   +W
|-----------------------------------------------------------------------------|
|-----------------------------------------------------------------------------|
|-(16)------------------------------------------------------------------------|
|-----------------------------------------------------------------------------|
|-----------------------------------------------------------------------------|
|-----------------------------------------------------------------------------|
|
|   |-------6-------|  |------6-------|  |------6-------|  |------6-------|
|   S   S  S  S  S  S  S  S  S  S  S  S  S  S  S  S  S  S  S  S  S  S  S  S
|------------------14-19-14----------------------------14-19-14---------------|
|---------------15----------15----------------------15----------15------------|
|------------16----------------16----------------16----------------16---------|
|---------16----------------------16----------16----------------------16------|
|--14--17----------------------------17-14-17----------------------------17---|
|-----------------------------------------------------------------------------|


  E5
   W
   |
   /

               |--3--|  |------6-------|  |------6-------|  |------6-------|
   T  T  T  T  S  S  S  S  S  S  S  S  S  S  S  S  S  S  S  S  S  S  S  S  S
|----------------15----19-15----15----15-19-15----------15-19-15----17-15----|
|-------------17----17-------17----17----------19-17-19----------19-------15-|
|----------16----------------------------------------------------------------|
|-------17-------------------------------------------------------------------|
|----19----------------------------------------------------------------------|
|-19-------------------------------------------------------------------------|


  C5/G
   Q                      Q                     +H
   |                      |                      |
   /                      /                      /

   PM------|              PM------|                                PM------|
                                                 |------6-------|
   T  T  T  T  T  T  T T  T  T  T  T  T  T  T T  S  S  S  S  S  S  T  T  T  T  T  T  T  T
|-------------15h20p15---------------15h20p15---19-20-19-15-19-15-------------15h20p15-------|
|----------17---------------------17---------------------------------------17----------17----|
|-------17---------------------17---------------------------------------17-------------------|
|----17---------------------17---------------------------------------17----------------------|
|-19---------------------19---------------------------------------19-------------------------|
|--------------------------------------------------------------------------------------------|


  B5/F#
   W            W
   |            |
   /            /

   ~~~~~~~~~~~~~~~~
   W           +W
|-----------|---------------------------------------------------|
|-19--------|-(19)----------------------------------------------|
|-----------|---------------------------------------------------|
|-----------|---------------------------------------------------|
|-----------|---------------------------------------------------|
|-----------|---------------------------------------------------|
|
| Gtr IV
|                                           PM---|           ~~
|                         |------6-------|  |-----6------|
|  W            E   S  S  S  S  S  S  S  S  S  S  S  S.  S.  Q
|-----------|---------10-14-10----------------------10--14--19--|
|-----------|------12----------12----------------12-------------|
|-----------|-/11-----------------11----------11----------------|
|-----------|------------------------12----12-------------------|
|-----------|---------------------------14----------------------|
|-----------|---------------------------------------------------|


  E5                                                 A5/E
   H.                                             +E E
   |                                               | |
   /                                               / /

   W
|-------------------------------------------------------|
|-------------------------------------------------------|
|-------------------------------------------------------|
|-------------------------------------------------------|
|-------------------------------------------------------|
|-------------------------------------------------------|
|
|                                       T
|  |-------6-------|  |------6-------|
|  S   S  S  S  S  S  S  S  S  S  S  S  E  +S   S  Q
|-19--15-------------------------15-19-24-(24)-19-15----|
|--------17-------------------17------------------------|
|-----------16-------------16---------------------------|
|--------------17-------17------------------------------|
|-----------------19-19---------------------------------|
|-------------------------------------------------------|


  C5/G
   W
   |
   /

   |------6-------|  |------6-------|  |------6-------|  |---3----|  |-----3------|
   S  S  S  S  S  S  S  S  S  S  S  S  S  S  S  S  S  S  S  S  T  T  T  T  T  S  +T
|-24p20----20----20-24p20----20----20-24p20----24p20----24p20----24p20----24p20-(20)-|
|-------20----20----------20----20----------20-------20-------20-------20------------|
|------------------------------------------------------------------------------------|
|------------------------------------------------------------------------------------|
|------------------------------------------------------------------------------------|
|------------------------------------------------------------------------------------|
|
|  |------6-------|  |------6-------|  |------6-------|  |---3----|  |-----3------|
|  S  S  S  S  S  S  S  S  S  S  S  S  S  S  S  S  S  S  S  S  T  T  T  T  T  S  +T
|-20p15----15----15-20p15----15----15-20p15----20p15----20p15----20p15----20p15-(15)-|
|-------17----17----------17----17----------17-------17-------17-------17------------|
|------------------------------------------------------------------------------------|
|------------------------------------------------------------------------------------|
|------------------------------------------------------------------------------------|
|------------------------------------------------------------------------------------|


  B5/F#
   W
   |
   /

      ~~~
            |-----3-----|
   T  Q.    E  +E      +E   +T   +E   +E.
|-24p19----19-(19)b20r(19)-(19)-(19)-(19)\--|
|-------------------------------------------|
|-------------------------------------------|
|-------------------------------------------|
|-------------------------------------------|
|-------------------------------------------|
|
|     ~~~
|           |-----3-----|
|  T  Q.    E  +E      +E   +T   +E   +E.
|-20----------------------------------------|
|----16----16-(16)b17r(16)-(16)-(16)-(16)\--|
|-------------------------------------------|
|-------------------------------------------|
|-------------------------------------------|
|-------------------------------------------|


  (Esus2)     (Em)        (Esus2)     (Em)
  Gtrs I, II
    PM|        PM|         PM|         PM|
    S S  S  S  S  S  S  S  S  S  S  S  S S S S
|----------------------------------------------|
|----------------------------------------------|
|----------------------------------------------|
|--------4--2--------5--2--------4--2------5-2-|
|-----2-----------2-----------2----------2-----|
|---0----------0-----------0-----------0-------|
|
| Gtr III
|                                      ~~
|   E    S  S  S  S  S  S  S  S  S  S  Q
|-/24---22-24-20-24-22-24----24----24----------|
|-------------------------22----20----19-------|
|----------------------------------------------|
|----------------------------------------------|
|----------------------------------------------|
|----------------------------------------------|
|
| Gtr IV
|                                      ~~
|   E    S  S  S  S  S  S  S  S  S  S  Q
|-/15---14-15-12-15-14-15----15----15----------|
|-------------------------13----12----12-------|
|----------------------------------------------|
|----------------------------------------------|
|----------------------------------------------|
|----------------------------------------------|


  (Em7+5)               (Em+5)                (Em7+5)               (Em+5)
   PM---|                PM---|                PM---|                PM---|
   S    S     S    S     S    S     S    S     S    S     S    S     S    S     S S
|-----------------------------------------------------------------------------------|
|-----------------------------------------------------------------------------------|
|-----------------------------------------------------------------------------------|
|-----------------------------------------------------------------------------------|
|-------------5----3----------------7----3----------------5----3----------------7-3-|
|--0----3----------------0----3----------------0----3----------------0----3---------|
|
|  |--------6---------|  |--------6---------|  |--------6---------|  |---3---|
|  S  S    S  S  S    S  S  S    S  S  S    S  S  S    S  S  S    S  S  S    S  E
|-20-23---24---------20--------------------------------------------------------23---|
|------------22-24------24-22---20-22------20---------20------------22-20-----------|
|-------------------------------------23------21-23------23-21---23---------23------|
|-----------------------------------------------------------------------------------|
|-----------------------------------------------------------------------------------|
|-----------------------------------------------------------------------------------|
|
|  |--------6---------|  |--------6---------|  |--------6---------|  |---3---|
|  S  S    S  S  S    S  S  S    S  S  S    S  S  S    S  S  S    S  S  S    S  E
|-12-14---15-20-23---24-23-20------20------19---------19-----------------------14---|
|-------------------------------24----22------20-22------22-20---22-13-12-----------|
|---------------------------------------------------------------------------14------|
|-----------------------------------------------------------------------------------|
|-----------------------------------------------------------------------------------|
|-----------------------------------------------------------------------------------|


  (Esus2)         (Em)         (Esus2)          (Em)
   PM|            PM|            PM----|          PM-|
   S S   S      S S S  S   S     S     S   S  S   S  S   S   S
|--------------------------------------------------------------|
|--------------------------------------------------------------|
|--------------------------------------------------------------|
|--------4------2------5---2---------------4--2----------5---2-|
|----2--------------2------------------2-------------2---------|
|--0--------------0--------------0----------------0------------|
|
|                                                 ~~~~
|  E    +Q             S  +S    +E        +E     +E     +E
|-24---(24)b27========24-(24)r-(24)b26r==(24)---(24)---(24)\---|
|--------------------------------------------------------------|
|--------------------------------------------------------------|
|--------------------------------------------------------------|
|--------------------------------------------------------------|
|--------------------------------------------------------------|
|
|  E    +Q             S  +S    +E        +E      E     +E
|-15---(15)b19========15-(15)r-(15)b17r==(15)----15----(15)\---|
|--------------------------------------------------------------|
|--------------------------------------------------------------|
|--------------------------------------------------------------|
|--------------------------------------------------------------|
|--------------------------------------------------------------|


  (Em7+5)                (Em+5)                (Em7+5)             (Em+5)
   PM---|                 PM---|                PM|                 PM|
   S     S     S    S     S    S     S    S     S  S  S    S        S S   S  S
|------------------------------------------------------------------------------|
|------------------------------------------------------------------------------|
|------------------------------------------------------------------------------|
|------------------------------------------------------------------------------|
|--------------5----3----------------7----3-----------5----3--------------7--3-|
|--0-----3----------------0----3----------------0--3----------------0-3--------|
|
|                                                                         ~~~~
|              |---3---|  |--------6---------|        |---3---|
|  T  T  T  T  S  S    S  S  S    S  S  S    S  S  S  S  S    S  a  E    +E
|------------------------20p15------15------15-20S22-20p15------15h20---(20)---|
|-------------17-20---17---------17----17--------------------17----------------|
|----------17------------------------------------------------------------------|
|-------17---------------------------------------------------------------------|
|----19------------------------------------------------------------------------|
|-20---------------------------------------------------------------------------|
|
|  W
|------------------------------------------------------------------------------|
|------------------------------------------------------------------------------|
|------------------------------------------------------------------------------|
|------------------------------------------------------------------------------|
|------------------------------------------------------------------------------|
|------------------------------------------------------------------------------|


 Guitar Solo Part 2
  Faster Q=224
  B5       E5       C5       B5
   Q        Q        Q        Q
|-------------------------------------|
|-------------------------------------|
|-------------------------------------|
|--4-----------------5--------4-------|
|--2--------2--------3--------2-------|
|-----------0-------------------------|
|
|  |--3--|  |--3--|  |--3--|  |--3--|
|  E  E  E  E  E  E  E  E  E  E  E  E
|-19-14----------14-20-15-------------|
|-------15----15----------17----------|
|----------16----------------16-------|
|-------------------------------17----|
|----------------------------------19-|
|-------------------------------------|


  N.C.                                E5
      PM|   PM|      PM------------|
                     |--3--|  |--3--|
  E E E E E E E E    E  E  E  E  E  E  H
|-----------------|-------------------------|
|-----------------|-------------------------|
|-----------------|-------------------------|
|-8---------------|-------------------------|
|---7-----7-----6-|--1--1--1--1--1--1--2----|
|-----6-0---0-6---|--------------------0----|
|
|                    |--3--|  |--3--|
| W                  E  E  E  E  E  E  H
|-----------------|----------------15-19----|
|-----------------|-------------17----------|
|-----------------|----------15-------------|
|-----------------|-------14----------------|
|-----------------|----16-------------------|
|-----------------|-18----------------------|


                                                                            F#5
 5/4
         PM    PM      PM      PM     PM-----------------|        PM-----|
                                             |-3--| |--3--| |--3--|  |-3--|
    E    E   E E  E    E     E E  E   E      E E  E E  E  E E  E  E  E E  E Q
|------------------------------------------|----------------------------------------|
|------------------------------------------|----------------------------------------|
|------------------------------------------|----------------------------------------|
|------------------------------------------|----------------------------------------|
|---7--------7----7----------7----7--------|--------------------------------4-------|
|--------0-----0-------0-------0------0----|-2-2--2-2--2--2-3p=2--2--2-2--2-2-------|
|
|   ~~~~
|  +H.                       H               W
|-(19)-------------------------------------|----------------------------------------|
|------------------------------------------|----------------------------------------|
|------------------------------------------|----------------------------------------|
|------------------------------------------|----------------------------------------|
|------------------------------------------|----------------------------------------|
|------------------------------------------|----------------------------------------|
|
| Gtr IV
|   |--3---|      |---3---|       |--3---|   |-3--| |--3--| |--3--|  |-3--| |--3--|
|   E  E   E Q    E  E    E  Q    E E    E   E E  E E  E  E E  E  E  E E  E E  E  E
|--12--7---------12-15---12------12-8------|----------------8h11h12-11p8h11-8h11h12-|
|----------8----------------12----------10-|--------8h10h12-------------------------|
|------------9-----------------------------|-8h9h11---------------------------------|
|------------------------------------------|----------------------------------------|
|------------------------------------------|----------------------------------------|
|------------------------------------------|----------------------------------------|


  C
         PM          PM         PM          PM       PM
   E     E     E     E    E     E     E     E  E     E
|---------------------------------------------------------|
|---------------------------------------------------------|
|---------------------------------------------------------|
|---------------------------------------------------------|
|--7-----------7----------7-----------7--------7----------|
|--------0-----------0----------0-----------0--------0----|
|
|  S  S  S  S  S  S  S S  S  S  S  S  S  S  E  S  S  S  S
|----15p12------------------15p12-------------------------|
|-12-------12------------12-------12-13p10h13-------------|
|-------------12------------------------------11----------|
|----------------14------------------------------13p10----|
|-------------------14---------------------------------12-|
|---------------------------------------------------------|
|
|  S  S  S  S  S  S  S S  S  S  S  S  S  S  E  S  S  S  S
|----12p=7------------------12p=7-------------------------|
|--8--------8-------------8--------8-10p=7h10-------------|
|--------------9-------------------------------8----------|
|----------------10------------------------------10p=7----|
|-------------------10----------------------------------9-|
|---------





Comments


Popular Necrophagist tabs & chords
Fermented Offal Discharge Bass Tabs
Only Ash Remains Intro Bass Tabs
Dismembered Self-immolation Tabs
Epitaph Tabs
Epitaph 2 Tabs
Extreme Unction Tabs
Intestinal Incubation Tabs
Seven Tabs
Stabwound Tabs
Stabwound 1 Tabs


Song lyrics



↑ Back to top | Tablatures and chords are parodies/interpretations of the original songs. You may use it for private study, scholarship, research or language learning purposes only
© 2014 AZChords.com Contact us | Privacy policy | DMCA | Add/correct tabs | Request tabs | Top 50 tabs