» » »

Fermented Offal Discharge Tabs (ver.1)

Artists:  A B C D E F G H I J K L M N O P Q R S T U V W X Y Z # 

Fermented Offal Discharge Tabs (ver.1)

Necrophagist
Rating:
5/5 (2 votes)

Hard to play? Try these video lessons and learn fast.
                (Intro)
This Song has taken me ages to figure out, like 7-8 weeks.
here it is.
(I got i tabbed for two guitars as i seen in the video for this song)
tunning: D G C F A D
|-----------------------------|---------------------------------|
|-----------------------------|---------------------------------|
|-----------------------------|----------------------------9----|
|--------------------------3~-|----------------------------8----|
|-----------------------------|----------------------------7----|
|-0-0-0-0-0-0-0-0-0-0-0-0-----|---------------------------------|
|pm......................
|-------7---9-13-9------------|-------------9-13-9-12-----------|
|------8--8--------11---------|----------11----------11---------|
|-----9--------------10-------|--------9-------------------9----|
|----9------------------11-8--|-----11--------------------------|
|-10--------------------------|--13-----------------------------|
|-----------------------------|---------------------------------|


|---------------------------------------------------|
|---------------------------------------------------|
|---------------------------------------------------|
|---------------------------------------------------|
|-2-------3-------2-------1-------2-------3---------|
|---0-2-0---0-2-0---0-2-0---0-3-0---0-2-0---0-2-0---|
pm  .....   .....   .....   .....   .....   .....
|----------------------------------------------|---------|-----|
|----------------------------------------------|---------|-----|
|-------------------------------------------3--|---------|--3--|
|-8------------------------4----------------1--|Bass part|--1--|
|---7-----7-----6--2---------3-----3--------1--|---------|--1--|
|-----6-0---0-6------0-2-0-----2-0---0-3-0-----|---------|-----|

|---------------------------------------------------------------------|
|---------------------------------------------------------------------|
|-----------------------------------------------------------------<6>-|
|--------------------------------------------------4--5---------------|
|-2-------1-------2-------1-------2-------3--------2--3---------------|
|---0-2-0---0-2-0---0-2-0---0-2-0---0-2-0---0-3-0--2--3---0-0-0-0-----|
|pm .....   .....   .....   .....   .....   .....         .......
|---------------------------------------------------------------------|
|---------------------------------------------------------------------|
|---------------------------------------------------------------------|
|--------------------------------------------------4-5----------------|
|-2-------1-------2-------1-------2-------3--------2-3----------------|
|---0-2-0---0-2-0---0-2-0---0-2-0---0-2-0---0-3-0--2-3---0-0-0-0------|
pm  .....   .....   .....   .....   .....   .....        .......

|------------------------------------------------------------------|
|------------------------------------------------------------------|
|------------------------------------------------------------------|
|-----------------------------------------------------2-5----------|
|-------------------<6>----------1---2-3----------1-----------2-3--|
|-33333333233333333-----33333333---0-----33333333---0-----0-1------|
|pm................     ........         ........         ...
|------------------------------------------------------------------|
|------------------------------------------------------------------|
|------------------------------------------------------------------|
|------------------------------------------------------------------|
|--------------------------------1---2-3----------1---3-6-----2-3--|
|-33333333233333333-----33333333---0-----33333333---0-----2-0------|
pm.................     ........         ........         ...

|--------------------------------------------------------------------|
|--------------------------------------------------------------------|
|--------------------------------------------------------------------|
|------------------<8>-------------------------------------------2-5-|
|---------------------------1---2-3------------------0---2-3---------|
|-0000000022220000-----0000---0-----0000000022220000---2-----0-1-----|
|pm...............     ....         ................         ...
|--------------------------------------------------------------------|
|--------------------------------------------------------------------|
|--------------------------------------------------------------------|
|--------------------------------------------------------------------|
|---------------------------1---2-3------------------1---2-3-----3-6-|
|-0000000022220000-----0000---0-----0000000022220000---0-----2-0-----|
pm................     ....         ................         ...

|------------------------------------------------------------------|
|------------------------------------------------------------------|
|------------------------------------------------------------------|
|-----------------------------------------------------2-5----------|
|-------------------<6>----------1---2-3----------1-----------2-3--|
|-33333333233333333-----33333333---0-----33333333---0-----0-1------|
|pm................     ........         ........         ...
|------------------------------------------------------------------|
|------------------------------------------------------------------|
|------------------------------------------------------------------|
|------------------------------------------------------------------|
|--------------------------------1---2-3----------1---3-6-----2-3--|
|-33333333233333333-----33333333---0-----33333333---0-----2-0------|
pm.................     ........         ........         ...

|--------------------------------------------------------------------|
|--------------------------------------------------------------------|
|--------------------------------------------------------------------|
|------------------<8>-------------------------------------------2-5-|
|---------------------------1---2-3------------------0---2-3---------|
|-0000000022220000-----0000---0-----0000000022220000---2-----0-1-----|
|pm...............     ....         ................         ...
|--------------------------------------------------------------------|
|--------------------------------------------------------------------|
|--------------------------------------------------------------------|
|--------------------------------------------------------------------|
|---------------------------1---2-3------------------1---2-3-----3-6-|
|-0000000022220000-----0000---0-----0000000022220000---0-----2-0-----|
pm................     ....         ................         ...

|------------------|--------------------|----------------------------|
|------------------|--------------------|---------------4-5----------|
|------------------|---------------4444-|---4-----3------------------|
|-4--5----------5--|-55555555-7777------|-5---2-4---2-5--------------|
|-2--3-------5--2--|--------------------|----------------------------|
|-2--3-0-0-0-3--3--|--------------------|----------------------------|
|pm    .....                              .   ...   ...
|------------------|--------------------|----------------------------|
|------------------|--------------------|----------------------------|
|------------------|--------------------|----------------------------|
|-4--5----------5--|--------------------|----------------------------|
|-2--3-------5--2--|-22222222-3333-5555-|---2-----1-----2-3----------|
|-2--3-0-0-0-3--3--|--------------------|-3---0-2---0-3--------------|
pm     .....                              .   ...   ...

|-------|-----------------|----------------------|-------------------------|
|-------|-----------------|----------------5-8-5-|---------------4-5-4-3-4-3
|-------|-----------------|----------------------|-------------------------|
|-4--5--|-4-----1---------|----------------------|-------------------------|
|-2--3--|-2-2-2-1---------|----------------------|-------------------------|
|-2--3--|-2-2-2---0-0-0-0-|-0-0-0-0-0-0-0-0------|0-0-0-0-0-0-0-0----------|
|pm               .........................       ...............
|-------|-----------------|----------------------|-------------------------|
|-------|-----------------|----------------------|-------------------------|
|-------|-----------------|----------------------|-------------------------|
|-4--5--|-4-----1---------|----------------------|-------------------------|
|-2--3--|-2-2-2-1---------|----------------3-6-3-|---------------2-3-2-1-2-1
|-2--2--|-2-------0-0-0-0-|-0-0-0-0-0-0-0-0------|0-0-0-0-0-0-0-0----------|
pm                .........................       ...............

|-------|-----------------|----------------------|-------------------------|
|-------|-----------------|----------------5-8-5-|---------------4-5-4-3-4-3
|-------|-----------------|----------------------|-------------------------|
|-4--5--|-4-----1---------|----------------------|-------------------------|
|-2--3--|-2-2-2-1---------|----------------------|-------------------------|
|-2--3--|-2-2-2---0-0-0-0-|-0-0-0-0-0-0-0-0------|0-0-0-0-0-0-0-0----------|
|pm               .........................       ...............
|-------|-----------------|----------------------|-------------------------|
|-------|-----------------|----------------------|-------------------------|
|-------|-----------------|----------------------|-------------------------|
|-4--5--|-4-----1---------|----------------------|-------------------------|
|-2--3--|-2-2-2-1---------|----------------3-6-3-|---------------2-3-2-1-2-1
|-2--2--|-2-------0-0-0-0-|-0-0-0-0-0-0-0-0------|0-0-0-0-0-0-0-0----------|
pm                .........................       ...............

|-----------------|
|-----------------|
|-----------------|
|-----------------|
|-3-------1-------|
|---0-0-0---0-0-0-|
|pm......   .....
|-----------------|
|-----------------|
|-----------------|
|-----------------|
|-3-------1-------|
|---0-0-0---0-0-0-|
pm  .....   .....

|----------------|-----------------|---------------------------|
|----------------|-----------------|-----------------------4-5-|
|----------4-----|-----------------|-----------4-----3---------|
|--------5---2-5-|-----------------|---------5---2-4---2-5-----|
|-3--2-----------|-3-------1-------|-3---2---------------------|
|--0---0---------|---0-0-0---0-0-0-|---0---0-------------------|
|pm.   .             .....   .....     .   .     ...   ...
|----------------|-----------------|---------------------------|
|----------------|-----------------|---------------------------|
|----------------|-----------------|---------------------------|
|----------------|-----------------|---------------------------|
|-3--2-----2-----|-3-------1-------|-3---2-----2-----1-----2-3-|
|--0---0-3---0-3-|---0-0-0---0-0-0-|---0---0-3---0-2---0-3-----|
pm..   ...   ...     .....   .....     .   ...   ...   ...
            
Hard to play? Try these video lessons and learn fast. | Correct




comments powered by Disqus
↑ Back to top | Tablatures and chords are parodies/interpretations of the original songs. You may use it for private study, scholarship, research or language learning purposes only