» » »

Nazareth, Miss Misery Tabs (ver.3)

Artists:  A B C D E F G H I J K L M N O P Q R S T U V W X Y Z # 

Miss Misery Tabs (ver.3)

Nazareth Tabs
 Rating:
4.4/5 (7 votes)
Miss Misery lessons Tabs too difficult? Try these video lessons and learn fast
1
                Alright
Im sorry man
but the other tab on this song doesnt sound right at all
I tried playing it a different way
and this is what i came up with
I know it might not be 100% correct
but it sounds right on my guitar

anyway

here you are

Intro:

e|------------------------------------------------------------------|
B|------------------------------------------------------------------|
G|------------------------------------------------------------------|
D|--7s9-9----7s9-9----------7s9-9----7s9-9----7s9-9----------7s9-9--|
A|--5s7-7----5s7-7---7--5---5s7-7----5s7-7----5s7-7---7--5---5s7-7--|
E|-------------------5--3-----------------------------5--3----------|

Verse:

e|-----------------------------|
B|-----------------------------|
G|-----------------------------| (x4)
D|---------7s9-9---------9-7---|
A|--7s9-9--5s7-7--7s9-9--7-5---|
E|--5s7-7---------5s7-7--------|

Pre Chorus:

e|---------------------------|
B|---------------------------|
G|---------------------------|
D|---------9s11-11---9-7-4---|
A|--7s9-9--7s9---9---7-5-2---|
E|--5s7-7--------------------|

Chorus:

e|-------------------|                    e|----------------|
B|-------------------|                    B|----------------|
G|-------------------|                    G|----------------|
D|-------------------|(x3)  then on the   D|----------------|
A|--5-5--7-7-7s9-9---|       last time    A|--5-5--7-7--2---|
E|--3-3--5-5-5s7-7---|                    E|--3-3--5-5--0---|

Post Chorus:

e|------------------------------------------------|
B|------------------------------------------------|
G|------------------------------------------------|
D|----------------9-7----------------9-7----------|
A|--7s9-9--7s9-9--7-5--7s9-9--7s9-9--7-5--7-9-9---|
E|--5s7-7--5s7-7-------5s7-7--5s7-7-------5s7-7---|


Thats Pretty Much It
Sorry Bout Not Having The Solo Though
Ill Try And Get It Up Soon

Please Rate, Comment, Critique!

--JAKE
            
Submit corrections

comments powered by Disqus
↑ Back to top | Nazareth Tabs for Miss Misery. Lyrics for acoustic guitar and electric guitar. 1 Tablatures and chords are parodies/interpretations of the original songs. You may use it for private study, scholarship, research or language learning purposes only