» » »

Nazareth, Miss Misery Tabs (ver.1)

Artists:  A B C D E F G H I J K L M N O P Q R S T U V W X Y Z # 

Miss Misery Tabs (ver.1)

Nazareth Tabs
 Rating:
3.6/5 (7 votes)
Miss Misery lessons Tabs too difficult? Try these video lessons and learn fast
1
                -----------------------------------------------------------------------------
-----------------------------------------------------------------------------

This is 100% Correct. Ive watch numerous live versions and hers a good link for one:

Tuning:Standard
INTRO
e|--------------------------------------------------------------------------|
B|--------------------------------------------------------------------------|
G|--------------------------------------------------------------------------|
D|--5/7-----5/7----5/7---5---3----------------------------------------------|
A|--5/7-----5/7----5/7---5---3---------X2-----------------------------------|
E|--3/5-----3/5----3/5---3---1----------------------------------------------|

VERSE RIFF
e|--------------------------------------------------------------------------|
B|--------------------------------------------------------------------------|
G|----------5/7----------7---5----------------------------------------------|
D|--5/7-----5/7----5/7---7---5---Play as many times as needed---------------|
A|--5/7-----3/5----5/7---5---3----------------------------------------------|
E|--3/5------------3/5------------------------------------------------------|

VERSE RIFF 2
e|--------------------------------------------------------------------------|
B|--------------------------------------------------------------------------|
G|---------7/9-----------7----5---------------------------------------------|
D|--7/9----7/9----7/9----7----5-----2---------------------------------------|
A|--7/9----5/7----7/9----5----3-----2---------------------------------------|
E|--5/7-----------5/7---------------0---------------------------------------|

Chorus
e|--------------------------------------------------------------------------|
B|--------------------------------------------------------------------------|
G|--------------------------------------------------------------------------|
D|---2--4----5/7---------2--4---7-------------------------------------------|
A|---2--4----5/7---X4----2--4---7-------------------------------------------|
E|---0--2----3/5---------0--2---5-------------------------------------------|

And Return to the Verse riff after that =] Good luck!

Sorry about no solo.
************************************

| /   slide up
| \   slide down
| h   hammer-on
| p   pull-off
| ~   vibrato
| +   harmonic
| x   Mute note
| b   Bend
| pb  Pre-bend
| br  Bend release
| pbr Pre-bend release
| brb Bend release bend

************************************
            
Submit corrections

comments powered by Disqus
↑ Back to top | Nazareth Tabs for Miss Misery. Lyrics for acoustic guitar and electric guitar. 1 Tablatures and chords are parodies/interpretations of the original songs. You may use it for private study, scholarship, research or language learning purposes only