» » »

Torn Tabs (ver.1)

Artists:  A B C D E F G H I J K L M N O P Q R S T U V W X Y Z # 

Torn Tabs (ver.1)

Natalie Imbruglia
Rating:
4/5 (11 votes)

Tabs too difficult? Try these video lessons and learn fast.
                "Torn" by Natalie Imbruglia
Chords are taken from TNT SHWE's version.

Intro:

F... Bb... F... Gm...

Verse 1:

| F | F | Am | Am | Bb | Bb | x2

Pre-chorus 1 and 2:

                                 (1st time)  (2nd time)
  Dm        C         Am         C           C
e-------5---------3---------0--|-------3---|---
B-----6---------5---------1----|-----5-----|-5-
G---7---------5---------2------|---5-------|-5-
D-7---------5---------2--------|-5---------|-5-
A------------------------------|-----------|---
E------------------------------|-----------|---

Chorus 1:

e||:-1-3-1-3-1-:|| x10
while playing these chords:
| F | C | Dm | Bb | x2
| F | C |

  Dm Bb
e-5----
B----3-
G----3-
D----3-

Verse 2:

  F Am          Bb
e---------3-0---------------
B---------------3-3-3-3-3-1-
G---2-0-2-------------------

Repeat pre-chorus

Chorus 2:

e||:-1-3-1-3-1-:|| x10
while playing these chords:
| F | C | Dm | Bb | x2
| F | C |

  Dm       Bb
e---1---5----|
B-3---3----3-|
G----------3-|
D----------3-| x2
A------------|
E------------|

| Dm | Dm | F | C |

Pre-chorus 3:

  Dm C Am    C
e--------------
B------1-3-1---

Chorus 3:

e||:-1-3-1-3-1-:|| x16
| F | C | Dm | Bb | x4

Coda:

(one guitar keeps playing this riff until fade,
another the chords below)
e||:-1-3-1-3-1-:||
| Dm | C | C |

(one guitar plays this other riff)
    F C    Dm Bb  F C    Dm Bb  F C       Dm    Bb
e---8---10--------8---10--------8---10-13-10----...
B-6--------10---6--------10---6--------------10-...

Chords needed:

  F     Bb    Am    C     Dm    Gm
e-1-----1-----0-----0-----1-----3-
B-1-----3-----1-----1-----3-----3-
G-2-----3-----2-----0-----2-----3-
D-3-----3-----2-----2-----0-----5-
A(3/0)--1-----0-----3----(0)----5-
E(1)---(1)---(0)---(0)----x-----3-

For any comments, questions or threats e-mail me at:


====================================================================


                       -----------------------------

                              *Single Version*


          Play the rhythm acoustically and the lead section (reminiscent
of the lead sections from James' "She's A Star") in the Coda electrically. 
I could tell you what the settings are, but since all amps differ, it
would be a better idea to go and tra in yourself to find these settings
yourself!  The chords in brackets are the transition chords and are played
for a much shorter period than the chords out of brackets.  Transition
chords are used to "musically fuse" two chords together! 


Recommended Chord Positions:  

                                Am  xO221O
                                Bb  x13331
                                C   x32O1O 
                                Dm  xxO231
                                F   133211
                                Gm  355333
  Intro: 

          F   Bb   F   GmVerse 1:

          F                                      Am
            I thought I saw a man brought to life

                                                     Bb
            He was warm, he came around like he was dignified

       
            He showed me what it was to cry

          F                                       Am
            Well you couldn't be that man I adored

                   
            You don't seem to know 

                                         Bb
            Don't seem to care what your heart is for 


            But I don't know him anymore Pre Chorus 1:

                         Dm
                 There's nothing where he used to lie 

                C 
                 My conversation has run dry 

               Am
                 That's what's going on 

               C                       
                 Nothing's fine

                       F 
                 I'm tornChorus 1:

          (F)                    C                Dm
             I'm all out of faith, this is how I feel

                               Bb                         F
             I'm cold and I am shamed, lying naked on the floor 

                               C                      Dm
                Illusion never changed, into something real 

                                Bb                              F
             I'm wide awake and I can see, the perfect sky is torn

                              C                  Dm  (C)  Bb
             You're a little late, I'm already torn Verse 2:

          F                                      Am
            So I guess the fortune teller's right

                                                                Bb
            I should have seen just what was there and not some holy light

  
            But you crawl beneath my veins and now
  


Pre Chorus 2:                          

                (Same chords and rhythm as Pre Chorus 1)


                 I don't care, I have no luck

                 I don't miss it all that much 

                 There's just so many things

                 That I can't touch

                 I'm tornChorus 2:

            (Same as Chorus 1)Bridge:

             Dm  (C)  Bb       Dm            F         C
           Torn...             Ooooh...  Hoo ooooh...  OooohPre Chorus 3:

                (Same chords and rhythm as Pre Choruses 1 and 2)


                 There's nothing where he used to lie

                 My inspiration has run dry

                 That's what's going on

                 Nothing's right

                 I'm tornChorus 3:

          (F)                    C                Dm
             I'm all out of faith, this is how I feel

                               Bb                         F
             I'm cold and I am shamed, lying naked on the floor 

                               C                      Dm
             Illusion never changed, into something real 

                                Bb                              F
             I'm wide awake and I can see, the perfect sky is torn

                                 C                Dm    
             I'm all out of faith, this is how I feel

                               Bb                              F
             I'm cold and I am shamed, bound and broken on the floor

                              C                  Dm  (C)  Bb
             You're a little late, I'm already torn Outro:

          Dm   C
          Torn...  [much wailing]           


          Ooh...Outro/Solo:

              (Same rhythm as Choruses)  [To Fade]


        F    C             Dm    (C) Bb     F    C             Dm  (C)  Bb

E|                 |  10 \ 5~~~~~~~  |                 |  10 \ 5~~~~~~~  |
B|  6 / 13~~~~~~~  |                 |  6 / 13~~~~~~~  |                 |
G|                 |                 |                 |                 |
D|                 |                 |                 |                 |
A|                 |                 |                 |                 |
E|                 |                 |                 |                 | 


        F    C              Dm   (C) Bb     F    C             Dm  (C)  Bb

E|                 |  10/13\10~\5~~  |                 |  10 \ 5~~~~~~~  |
B|  6 / 13~~~~~~~  |                 |  6 / 13~~~~~~~  |                 |
G|                 |                 |                 |                 |
D|                 |                 |                 |                 |
A|                 |                 |                 |                 |
E|                 |                 |                 |                 |
========


                        ---===<<< TORN >>>===---
                           Natalie  Imbruglia

This a Fantastic Song.  I have listenend to this track repeatedly and I 
feel that this is pretty close, I have limited knowledge of Chords, so 
the Build-Up is no doubt using Chords, If so, please contact me and tell 
me what they are.


Guitar1 :  Plays the BarChord 'F' four times, using a heavy/slow pluck. 
           While Guitar 2, plays these 4 notes slowly.

      F          F         F          F

E|----8----|----------|----------|---------|
B|---------|----11----|----10----|----8----|
G|---------|----------|----------|---------|
D|---------|----------|----------|---------|
A|---------|----------|----------|---------|
E|---------|----------|----------|---------|


                                -=< Verse >=- 

"I thought I saw a man brought to life..."

          F
          
E|--------1--------|
B|--------1--------|
G|--------2--------|
D|--------3--------|
A|--------3--------|
E|--------1--------|

"He was warm, he came around like he was dignified..."

          Am
          
E|--------0--------|
B|--------1--------|
G|--------2--------|
D|--------2--------|
A|--------0--------|
E|--------0--------|

"He showed me what it was to cry."

          Bb
          
E|--------1--------|
B|--------3--------|
G|--------3--------|
D|--------3--------|
A|--------1--------|
E|--------1--------|


  F

   "Well you couldn't be that man I adored"

  Am                                                      Bb

   "You dont seem to know - Don't seem to care what your Heart is for"


   "...But I don't know him anymore."


                                -=< Build Up >=-


"theres nothing..." "My conversation" "Thats what..."  "Nothing's fine."

E|------------------|----------------|----------------|----------------|
B|--------------10--|-----------8----|---------5------|-----------8----|
G|----------10------|--------9-------|------5---------|--------9-------|
D|------12----------|------10--------|-----7----------|------10--------|
A|--12--------------|--10------------|--7-------------|--10------------|
E|------------------|----------------|----------------|----------------|


                                -=< Chorus >=- 

F                C
"Im all out of Faith"

                Dm
"This is how I feel"

                    Bb                         F
"I'm cold and I am shamed lying naked on the floor"

                   C
"Illusion never changed"

                 Dm
"Into something real"

                    Bb                            F
"I'm wide awake and I can see the perfect sky is Torn"

                  C                 Dm               Bb*(Slow/Hard strum
UP, let ring)
"You're a little late, I'm already Torn."                                -=< Outro >=- 

       s                    s              s                s    s
E|---1-/ 8----------|----10-/--------|---1-/-8--------|--10-/-13-/-10--|
B|------------------|---------10-----|----------------|----------------|
G|------------------|----------------|----------------|----------------|
D|------------------|----------------|----------------|----------------|
A|------------------|----------------|----------------|----------------|
E|------------------|----------------|----------------|----------------|
            
Tabs too difficult? Try these video lessons and learn fast.




comments powered by Disqus
↑ Back to top | Tablatures and chords are parodies/interpretations of the original songs. You may use it for private study, scholarship, research or language learning purposes only