» » »

Natalie Imbruglia, Torn Tabs (ver.2)

Artists:  A B C D E F G H I J K L M N O P Q R S T U V W X Y Z # 

Torn Tabs (ver.2)

Natalie Imbruglia Tabs
 Rating:
4/5 (4 votes)
Torn lessons Tabs too difficult? Try these video lessons and learn fast
1
                
Tuning: E A D G B E (Standard)



Intro:

--1----1----1----3----|
--1----1----1----1----|
--x----3----2----3----|
--3----3----3----3----|
--3---------3---------|
------------1---------|



Verse:

--1--------0--------1--------|
--1--------1--------3--------|
--2--------2--------1--------|
--3--------2--------3--------|
--3--------0--------1--------|
--1--------------------------|



Pre chorus:

--1----0----0----0----|
--3----1----1----1----|
--2----0----2----0----|
--0----2----2----2----|
-------3----0----3----|
----------------------|



Chorus:

--1----0----1----1----|
--1----1----3----3----|
--2----0----2----3----| x3
--3----2----0----3----|
--3----3---------1----|
--1-------------------|



Bridge:

--1---0--1----|
--3---1--1----|
--2---0--3----|
--0---2--3----|
------3--1----|
--------------|

--1--------1----0----|
--3--------1----1----|
--2--------2----0----|
--0--------3----2----|
-----------3----3----|
-----------1---------|



Ending:

--1----1----1----0--------|
--3----3----3----1--------|
--2----3----2----0--------|
--0----3----0----2--------|
-------1---------3--------|
--------------------------|

-1----0----1----1---1--1----|
-1----1----3----3---3--1----|
-2----0----2----3---3--2----|
-3----2----0----3---3--3----|
-3----3---------1---3--3----|
-1---------------------1----|
                       Let ring
            
Submit corrections

comments powered by Disqus
↑ Back to top | Natalie Imbruglia Tabs for Torn. Lyrics for acoustic guitar and electric guitar. 1 Tablatures and chords are parodies/interpretations of the original songs. You may use it for private study, scholarship, research or language learning purposes only