» » »

Seven Tears Are Flowing To The River Tabs (ver.2)

Artists:  A B C D E F G H I J K L M N O P Q R S T U V W X Y Z # 

Seven Tears Are Flowing To The River Tabs (ver.2)

Nargaroth
Rating:
5/5 (1 vote)

Hard to play? Try these video lessons and learn fast.
                (Intro)
     E  Q    E  Q    E  E
E||------------------------|
B||------------------------|
G||------------------------|
D||-----7-------7-------7--|
A||--8-------8-------8-----|
E||------------------------|


  E  Q    E  Q    E  E
------------------------|
------------------------|
------------------------|
-----9-------9-------9--|
--8-------8-------8-----|
------------------------|


  E   Q    E   Q    E   Q    E   E  E  E  E
---------------------------------------------|
---------------------------------------------|
---------------------------------------------|
-----10-------10-------10-------10-----9-----|
--0---L----0---L----0---L----0---L--0--L--0--|
---------------------------------------------|


  E  Q    E  Q    E  E
------------------------|
------------------------|
------------------------|
-----7-------7-------7--|
--8-------8-------8-----|
------------------------|


  E  Q    E  Q    E  E
------------------------|
------------------------|
------------------------|
-----9-------9-------9--|
--8-------8-------8-----|
------------------------|


  H         Q    E   E  Q     E  E   E  E  E
---------------------------------------------|
---------------------------------------------|
---------------------------------------------|
-----------10-------10-------10-----10-----9-|
--0--------------0---L--0-----L--0---L--0--L-|
---------------------------------------------|


  E  Q    E  Q    E  E
------------------------|
------------------------|
------------------------|
-----7-------7-------7--|
--8-------8-------8-----|
------------------------|


  E  Q    E  Q    E  E
------------------------|
------------------------|
------------------------|
-----9-------9-------9--|
--8-------8-------8-----|
------------------------|


  E   Q    E   Q    E   Q    E   E  E  E  E
---------------------------------------------|
---------------------------------------------|
---------------------------------------------|
-----10-------10-------10-------10-----9-----|
--0---L----0---L----0---L----0---L--0--L--0--|
---------------------------------------------|


  E  Q    E  Q     E  E
-------------------------|
-------------------------|
-------------------------|
-----7-------7----10--7--|
--8-------8--------------|
-------------------------|


  E  Q    E  E  E   E  E
--------------------------|
--------------------------|
--------------------------|
-----9-------9-----10--7--|
--8-------8-----8---------|
--------------------------|


   E   Q    E   Q    E   Q    E   E  E  E  E
---------------------------------------------|
---------------------------------------------|
---------------------------------------------|
--10--10-------10-------10-------10-----9----|
---0---L----0---L----0---L----0---L--0--L--0-|
---------------------------------------------|


  E  Q    E  Q    E  E
------------------------|
------------------------|
------------------------|
-----7-------7-------7--|
--8-------8-------8-----|
------------------------|


  E  Q    E  Q    E  E
------------------------|
------------------------|
------------------------|
-----9-------9-------9--|
--8-------8-------8-----|
------------------------|


  E   Q    E   Q     E  Q    E  E  E  E  E
----------------------------------------------|
----------------------------------------------|
----------------------------------------------|
-----10-------10----10-------9-----9-----9--1-|
--0---L----0---L--------0----L--0--L--0--L----|
----------------------------------------------|


  E  Q    E  Q    E  E
------------------------|
------------------------|
------------------------|
-----7-------7-------7--|
--8-------8-------8-----|
------------------------|


  E  Q    E  E  E  E  E
-------------------------|
----------------------L--|
----------------------L--|
-----9-------9-----9--L--|
--8-------8-----8--------|
-------------------------|


  E   Q    E   Q     E  Q    E  E  E  E  E
----------------------------------------------|
----------------------------------------------|
----------------------------------------------|
-----10-------10----10-------9-----9-----9--1-|
--0---L----0---L--------0----L--0--L--0--L----|
----------------------------------------------|


  E  Q    E  Q    E  E
------------------------|
------------------------|
------------------------|
-----7-------7-------7--|
--8-------8-------8-----|
------------------------|


  E  Q    E  Q    E  E
------------------------|
------------------------|
------------------------|
-----9-------9-------9--|
--8-------8-------8-----|
------------------------|


  E   Q    E   Q    E   Q    E   E  E  E  E
---------------------------------------------|
---------------------------------------------|
---------------------------------------------|
-----10-------10-------10-------10--------9--|
--0---L----0---L----0---L----0---L--0--0--L--|
---------------------------------------------|


  E  Q    E  Q    E  E
------------------------|
------------------------|
------------------------|
-----7-------7-------7--|
--8-------8-------8-----|
------------------------|


  E  Q    E  E  E  E  E
-------------------------|
-------------------------|
-------------------------|
-----9-------9-----9-----|
--8-------8-----8-----8--|
-------------------------|


   W                H
-----------------------------||
--------------------L--------||
-----------------------------||
--10----------------L--------||
---0----------------L--------||
-----------------------------||
            
Hard to play? Try these video lessons and learn fast. | Correct




comments powered by Disqus
↑ Back to top | Tablatures and chords are parodies/interpretations of the original songs. You may use it for private study, scholarship, research or language learning purposes only