>
 >
Seven Tears Are Flowing To The River

Seven Tears Are Flowing To The River Guitar Tabs

Nargaroth - Seven Tears Are Flowing To The River chords, tabs, tablatures, lyrics

Guitar lessons | Add/correct | Request | Top 50 tabs Artists:  A B C D E F G H I J K L M N O P Q R S T U V W X Y Z 0-9

Seven Tears Are Flowing To The River Guitar Tabs – Nargaroth

CD, Sheet music, Poster

Do you like Seven Tears Are Flowing To The River? Share with your friends now
TabsTabs v2
Band: Nargaroth


V1.0  15.05.03

Tuning: 1 step down from standard.

(clean)

(0:00)

  1 +2 + 3+ 4 + 1 +2 + 3+ 4 + 1 +2 + 3+ 4 + 1+ 2 + 3 + 4 +
II-------------|-------------|-------------|--------------|
II--0----0----0|--2----2----2|--3----3----3|---3---2---2--|
II0----0----0--|0----0----0--|-------------|--------------|
II-------------|-------------|-------------|--------------|
II-------------|-------------|2----2----2--|-2---2---2---2|
II-------------|-------------|-------------|--------------|

(0:09)
 |-------------|-------------|------------|--------------|
 |--0----0----0|--2----2----2|----3----3--|-3---3---2---2|
 |0----0----0--|0----0----0--|------------|--------------|
 |-------------|-------------|------------|--------------|
 |-------------|-------------|2------2---2|---2---2---2--|
 |-------------|-------------|------------|--------------|

(0:17)
 |-------------|-------------|-------------|--------------|
 |--0----0----0|--2----2----2|--3----3----3|---3---2---2--|
 |0----0----0--|0----0----0--|-------------|--------------|
 |-------------|-------------|-------------|--------------|
 |-------------|-------------|2----2----2--|-2---2---2---2|
 |-------------|-------------|-------------|--------------|

(0:25)
 |-------------|--------------|-------------|--------------|
 |--0----0--3-0|--2----2---3-2|3-3----3----3|---3---2---2--|
 |0----0-------|0----0---0----|-------------|--------------|
 |-------------|--------------|-------------|--------------|
 |-------------|--------------|2----2----2--|-2---2---2---2|
 |-------------|--------------|-------------|--------------|

(0:34)
 |-------------|-------------|-------------|--------------|
 |--0----0----0|--2----2----2|--3----3--3--|-2---2---2-3-2|
 |0----0----0--|0----0----0--|-------------|--------------|
 |-------------|-------------|-------------|--------------|
 |-------------|-------------|2----2------2|---2---2------|
 |-------------|-------------|-------------|--------------|

(0:42)
 |-------------|--------------|-------------|--------------|
 |--0----0----0|--2----2---2--|--3----3--3--|-2---2---2-3-2|
 |0----0----0--|0----0---0---0|-------------|--------------|
 |-------------|--------------|-------------|--------------|
 |-------------|--------------|2----2------2|---2---2------|
 |-------------|--------------|-------------|--------------|

(0:50)
 |-------------|-------------|-------------|--------------|
 |--0----0----0|--2----2----2|--3----3----3|---3-----2---0|
 |0----0----0--|0----0----0--|-------------|--------------|
 |-------------|-------------|-------------|--------------|
 |-------------|-------------|2----2----2--|-2---2-2---2--|
 |-------------|-------------|-------------|--------------|

(0:59)
 |-------------|--------------|---------|II
 |--0----0----0|--2----2---2--|3--------|II
 |0----0----0--|0----0---0---0|---------|II
 |-------------|--------------|---------|II
 |-------------|--------------|2--------|II
 |-------------|--------------|---------|II
                ritardando

(distortion)

Riff 1 x2 (1:11) (tremolo)

I---------------------------------------|
I---------------------------------------|
I-44444444-66666666-7777-6666-4444-6666-|
I-55555555-55555555-9999-9999-5555-7777-|
I---------------------------------------|
I---------------------------------------|

 ----------------------------------------|I
 ----------------------------------------|I
 -44444444-666666-4-6-77777777777777-66--|I
 -55555555-555555-5-5-99999999999999-99--|I
 ----------------------------------------|I
 ----------------------------------------|I

Riff 2 x2 (1:33) (tremolo)

I-----------------------------------------------------------------|
I-----------------------------------------------------------------|
I-12121212-11111111-9999-11111111-12121212-11111111-9999-11111111-|
I--9-9-9-9--9-9-9-9-9999--9-9-9-9--9-9-9-9--9-9-9-9-9999--9-9-9-9-|
I-----------------------------------------------------------------|
I-----------------------------------------------------------------|

 ----------------------------------------|I
 ----------------------------------------|I
 -7777-6666----------7777-6666-----------|I
 -9999-9999-77777777-9999-9999-77777777--|I
 -----------99999999-----------99999999--|I
 ----------------------------------------|I

Riff 3 x2 (1:55) (tremolo)

I------------------------------------------|
I------------------------------------------|
I-44444444-66666666-77777777-11111111-9999-|
I-55555555-77777777-99999999--9-9-9-9-9999-|
I------------------------------------------|
I------------------------------------------|

 -----------------------------------|
 -----------------------------------|
 -44444444-66666666-7777777777-6666-|
 -55555555-55555555-9999999999-9999-|
 -----------------------------------|
 -----------------------------------|

 ------------------------------------------|
 ------------------------------------------|
 -44444444-66666666-77777777-11111111-9999-|
 -55555555-77777777-99999999--9-9-9-9-9999-|
 ------------------------------------------|
 ------------------------------------------|

 ----------------------------------------|I
 ----------------------------------------|I
 -44444444-66666666-7777-6666-4444-2222--|I
 -55555555-55555555-9999-9999-5555-4444--|I
 ----------------------------------------|I
 ----------------------------------------|I

Riff 1 x2
Riff 2 x2
Riff 3 x2
Riff 1 x2
Riff 2 x2
Riff 3 x2
Riff 1 x2
Riff 2 x2
Riff 3 x2
Riff 1 x2
Riff 2 x2
Riff 3 x2
Riff 1 x2
Riff 2 x2
Riff 3 x2

Riff 4 x4 (7:36) (tremolo)

I-------------------------------------------------------------|
I-----------------------------------------888888-77------7777-|
I-777777-66------6666---------------------999999-99-9999-9999-|
I-999999-99-9999-9999-777777-66------6666-----------9999------|
I-----------9999------999999-99-9999-9999---------------------|
I-------------------------------9999--------------------------|

   1.          2.            3.                   4.
 -|-----------|-----------|------------|------------|I
 -|-----------|-----------|------------|------------|I
 -|-666666----|--------66-|-6666-77-66-|--------66--|I
 -|-999999-99-|-999999-99-|-9999-99-99-|-999999-99--|I
 -|--------99-|-999999----|------------|-999999-----|I
 -|-----------|-----------|------------|------------|I

Riff 1 x2
Riff 2 x2
Riff 3 x2
Riff 1 x2
Riff 2 x2
Riff 3 x2
Riff 1 x2
Riff 2 x2
Riff 3 x2
Riff 1 x2
Riff 2 x2

I------------------------------------------|
I------------------------------------------|
I-44444444-66666666-77777777-11111111-9999-|
I-55555555-77777777-99999999--9-9-9-9-9999-|
I------------------------------------------|
I------------------------------------------|

 -----------------------------------|
 -----------------------------------|
 -44444444-66666666-7777777777-6666-|
 -55555555-55555555-9999999999-9999-|
 -----------------------------------|
 -----------------------------------|

 ------------------------------------------|
 ------------------------------------------|
 -44444444-66666666-77777777-11111111-9999-|
 -55555555-77777777-99999999--9-9-9-9-9999-|
 ------------------------------------------|
 ------------------------------------------|

 ----------------------------------------|I
 ----------------------------------------|I
 -44444444-66666666-7777-7-(let ring)----|I
 -55555555-55555555-9999-9---------------|I
 ----------------------------------------|I
 ----------------------------------------|I





Comments


Popular Nargaroth tabs & chords
Abschiedsbrief Des Prometheus Tabs
Der Leiermann Tabs
I Burn For You Tabs
Pisen Pro Satana Tabs
Seven Tears Are Flowing To The River 1 Tabs
Seven Tears Are Flowing To The River Intro Tabs
The Day Burzum Killed Mayhem Tabs


Song lyrics



↑ Back to top | Tablatures and chords are parodies/interpretations of the original songs. You may use it for private study, scholarship, research or language learning purposes only
© 2014 AZChords.com Contact us | Privacy policy | DMCA | Add/correct tabs | Request tabs | Top 50 tabs