» » »

Name Taken, Safety Of Routine Bass tabs (ver.1)

Artists:  A B C D E F G H I J K L M N O P Q R S T U V W X Y Z # 

Safety Of Routine Bass tabs (ver.1)

Name Taken Tabs
Rating:
0/5 (0 votes)
Safety Of Routine lessons Tabs too difficult? Try these video lessons and learn fast
                i tabbed every part of this song becuase it is kinda confusing with out every
thing layed out for you,i think i did a good ass job on the solo so give me
 some credit,i saw them live and figured out most of the rest but Chad is a 
slick little bastard,i want to tab more songs by them,so be on the look-out.
 -figured out and submitted by Dejackamo Von Rictor from Barstow CA
-certain count, ~-let note ring out, !-hit notes hard and fast
Intro
G-------------------------------
D-------------------------------
A--------------333333332222222--
E--1>--5>--3>-------------------
Verse
G-----------------------------------
D-----------------------------------
A-----------------------------------
E--1>--5>--1>--5>--1>--5>--1>--5>---
Chorus
G------------------
D------------------
A-3>--5>-----------
E---------5>--1>---
At the end of first chorus
G--------------
D--------------
A--------------
E--1~----1~----
Second verse
G----------------------------------
D----------------------------------
A----------------------------------
E--1>--5>--1>--5>--1>--5>--1>--5>--
At the end of second verse
G--------------
D--------------
A-3333!-3333!--
E--------------
Second chorus
G------------------
D------------------
A-3>--5>-----------
E---------5>--1>---
Bass solo/Bridge
G-----------------|-
D---3---5---3---5-|-
A-33--33--33--33--|-
E-----------------|-

G-----------------|-
D---5---9---5---9-|-
A-55--55--55--55--|-
E-----------------|-

G--------9--------9-|-
D---7--------7------|-
A-00--00---00--00---|-
E-------------------|-

G---------9---------9-|-
D---10--------10------|-
A-88---88---88---88---|-
E---------------------|-

G-------- "We'll face this day and i won't care now!"
D--------
A---3~---
E--------
Bass solo, like strum style
G---------------------------------9----------9-|-
D---3-----5-----5-----9-----7---------10-------|-
A-33-33333-3--55-55555-5--00-00000--88--88888--|-
E----------------------------------------------|-
Play the chorus slow at one time
G------------------
D------------------
A-3>--5>-----------
E---------5>--1>---
End like this
G------------------
D------------------
A-3~--5~--------3~-
E--------5~--1~----
 "the bass solo is like Briana Bank's vagina,tight,sexy,& only a few guys get it"
            
Submit corrections

comments powered by Disqus
↑ Back to top | Name Taken Bass for Safety Of Routine. Lyrics for acoustic guitar and electric guitar. Tablatures and chords are parodies/interpretations of the original songs. You may use it for private study, scholarship, research or language learning purposes only