>
 >
Safety Of Routine

Safety Of Routine Guitar Tabs

Name Taken - Safety Of Routine chords, tabs, tablatures, lyrics

Guitar lessons | Add/correct | Request | Top 50 tabs Artists:  A B C D E F G H I J K L M N O P Q R S T U V W X Y Z 0-9

Safety Of Routine Guitar Tabs – Name Taken

CD, Sheet music, Poster

Do you like Safety Of Routine? Share with your friends now
TabsTabs v2
Intro 
Gtr. 1  
e------------------------------------------------------------------------------
B-----------------------------------------------------------------------------
G----1010101010-------9999999--------5555--------7777------------   4x
D-----x-x-x-x-x---------xxxxxxx--------xxxx--------xxxx-------------
A-----8-8-8-8-8---------7777777--------3333--------5555-------------
E-----------------------------------------------------------------------------

Gtr. 2
e--------------------------------------------------------------------------------------
B-------------------------------------------------------------------------------------
G--------------------------------------------------------------555555444444-----   2x
D--333333333333---7777777777----555555555-----555555555555----
A--333333333333---7777777777----555555555-----333333222222----
E--111111111111---5555555555----333333333---------------------------

Verse 1
Gtr. 1
e----------------------------------------------------------------------------
B----------------------------------------------------------------------------
G---------------9------------9------------9-------------12-----------------
D----------------------------------------------------------------------------
A---88888--------88888-------88888------88888----------------------
E----------------------------------------------------------------------------
PM ……..          . …….         ……..        .……..
‘Everydays the same…..’’
e----------------------------------------------------------------------------
B-----------------------------------------------------------12------12-----
G------------9---------------9--------------9------------------12------12-
D----------------------------------------------------------------------------
A--88888--------88888--------88888-------88888---------------------
E----------------------------------------------------------------------------
      …….           ………        ………        ………
e-----------------------------------------------------------------------
B-----------------------------------------------------------------------
G----------------9------------9------------9-------------12---------
D--------------------------------------------------------------------
A-----88888--------88888--------88888-------88888------------
E----------------------------------------------------------------------
         ……..           ……..           ……..         ………
e---------------------------------------------------------------------------
B-------------------------------------------12--12--12--12---------
G----------------9------------9----------------12--12--12--12-----
D------------------------------------------------------------------
A----88888--------88888-------------------------------------------
E----------------------------------------------------------------

Verse1  Gtr 2
e-----------------------------------------------------
B----------------------------------------------------
G----------------------------------------------------    4x
D---333333333333--------77777777777-------
A---333333333333--------77777777777-------
E---111111111111--------55555555555--------
PM ………………         ………………

Chorus Gtr1
e-------------------------------------------------------------------------------
B-------------------------------------------------------------------------------
G---55555555---777---999---7777777--999—10-10-10-10-10-10--- 1x
D---xxxxxxxx---xxx---xxx---xxxxxxx--xxx----x--x---x---x--x--x----
A---33333333---555---777---5555555--777----8--8---8---8--8--8----
E------------------------------------------------------------------------------

e------------------------------------------------------------------
B--------------------------------------------------------------
G---999999-----555------777------999------777--------1x
D---xxxxxx-----xxx------xxx------xxx------xxx-------
A---777777-----333------555------777------555--------
E--------------------------------------------------------------

Chorus Gtr2
e-------------------------------------------------------------------------------
B------------------------------------------------------------------------------
G---555555555----777777777--------------------------------------------- 2x
D---555555555----777777777----777777777-----333333333----------
A---333333333----555555555----777777777-----333333333-----------
E--------------------------------------555555555-----111111111------------

Here’s the cool part. Gtr1 Play it fast

e----------------------------------------------------------
B---------------------------------------------------------
G-------------9-----10----------------9--------10-------
D---------------------------------------------------------
A---8888-8----88----------8888-8------88-------------
E---------------------------------------------------------
  ………….   ……           .…….          ….



e--------------------------------------------------------
B--------------------------------------------------------
G----------------9------10------------------9------10--
D--------------------------------------------------------
A---0000-0-------00----------0000-0-------00--------
E------------------------------------------------------
       ………         …              ……..           ..

Both gtrs
e----------------------------------
B---------------------------------
G---12----10-----9----10--------
D----x-----x------x-----x-------
A---10-----8-----7-----8-------
E-------------------------------

Do that fast part twice then,

Verse 2 gtr 1
e------------------------------------------------------
B--------------------------------------------------
G------------------------------------------------              3x
D------------------------------------------------
A-------------------------------------------------10----
E----8---5-----8---5----12----10-----8---10------10

4th time

e-------------------------------------------------------------------------
b-----------------------------------------------------------------------
g-------------------------------------------------------141414-141414--
d--------------------------------------------------------xxx-------xxx----   1x
a-------------------------------------------10/12-----121212--121212
E---8---5—8---5---12---10---8---10------------------------------
 
Gtr 2
e-----------------------------------------------------
B----------------------------------------------------
G----------------------------------------------------    3x
D---333333333333--------77777777777-------
A---333333333333--------77777777777-------
E---111111111111--------55555555555--------
PM ………………         ………………



e-----------------------------------------------
b-------------------------------------------------
g-----------------------------------------999--999--
d--333333333------77777777-------xxx--xxx--
a--333333333------77777777-------777--777----
E--111111111-----55555555--------------------------

Then Do Chorus Again

Then this

gtr1

e---------------------------------------------------------
b---------------------------------------------------------------
g--------------------------------------------------------------  4x
d------------------------------------------------------------
a-------3------3------3-----3-------7------7-----7------7-/-5
E--1-1---1-1----1-1---1-1----5-5---5-5---5-5---5-5--
PM      .  .     .  .       .  .     .   .      .  .     .   .     .   .    .   .

Gtr2
e---------------------------------------------------------------------
b---------------------------------------------------------------------
g--------10----10----10----10----------9------9-----9------9-----
d------------------------------------------------------------------------- 2x
a----8-8---8-8---8-8---8-8---------7-7---7-7---7-7---7-7-------
E-----------------------------------

Both guitars

e--------------------------------
b-----------------------------------D
g--------------B-------------------R
d---33--------A--------A --------U-
a---33--------S--------N---------M
E---11--------S--------D---------S---
t
Gtr1
e-----------------------------------------------------------
b-----------------------------------------------------------
g-----------9--10-9--10--9------------9--10-12-10-9--
d----------10-10-10-10-10-----------10-10-10-10-10---
a----8-8-----8---8----------------0-0----0—0--------------
E-----------------------------------------------------------

Gtr2
e------------------------------------------------------------------------
B------------------------------------------------------------------------
G---------W---555555---777---999---77777---999-101010---99999
D—33---A----xxxxxx---xxx---xxx---xxxxx---xxx---xxx-----xxxxx
A—33---I-----333333---555---777—55555—777—888-----77777
E---11---T------------------------------------------------------------------

e---------------------------------------------------------
B---------------------------------------------------------
G--1212121212----555---777---999---777--555----
D—xxxxxxxxxx---xxx---xxx---xxx---xxx--xxx
A—1010101010---333—555—777—555--333
E----------------------------------------------------





Comments


Popular Name Taken tabs & chords
Safety Routine Bass Tabs
I Quit My Scene Chords
You Do It So Well Chords
A Year Spent Cold Tabs
Clear And Conscious Intro Tabs
Control Intro Tabs
Safety Of Routine 1 Tabs
Today Tabs
Write Back Tabs
Write Back Ukulele


Song lyrics



↑ Back to top | Tablatures and chords are parodies/interpretations of the original songs. You may use it for private study, scholarship, research or language learning purposes only
© 2014 AZChords.com Contact us | Privacy policy | DMCA | Add/correct tabs | Request tabs | Top 50 tabs