» » »

Safety Of Routine Tabs (ver.2)

Artists:  A B C D E F G H I J K L M N O P Q R S T U V W X Y Z # 

Safety Of Routine Tabs (ver.2)

Name Taken
Rating:
0/5 (0 votes)

Hard to play? Try these video lessons and learn fast.
                "The Safety Of Routine" - Name Taken

~ = let ring
pm = palm mute

Intro: lead
	E|---------------------------|
	B|---------------------------|
	G|---------------------------|
	D|1010101010101010-9999-55-77|
	A|X X X X X X X X -XXXX-XX-XX|
	E|8 8 8 8 8 8 8 8 -7777-33-55|

intro: rhythm
	E|--------------------------------------------------------------------|
	B|--------------------------------------------------------------------|
	G|---------------------------------------------------55555555---------|
	D|3333333333333333-7777777777777777-5555555555555555-55555555-55555555|
	A|3333333333333333-7777777777777777-5555555555555555-33333333-22222222|
	E|1111111111111111-5555555555555555-3333333333333333------------------|

verse1: lead
	E|---------------------------------------------------------7---7--|
	B|-----------------------------8-----------------------------8---8|
	G|-----9--------9------9--------------9--------9------9-----------|
	D|----------------------------------------------------------------|
	A|8888---888888---0000---00000---8888---888888---0000---00--------|
	E|----------------------------------------------------------------|
	pm....   ......   ....   .....   ....   ......   ....   ..

verse1: rhythm
	E|---------------------------------|
	B|---------------------------------|
	G|---------------------------------|
	D|3333333333333333-7777777777777777|
	A|3333333333333333-7777777777777777|
	E|1111111111111111-5555555555555555|
	pm................ ................

chorus: lead
	E|----------------------------------------------------------------------------------|
	B|----------------------------------------------------------------------------------|
	G|55555555-7777-9999-77777777-99999999-1010101010101010-99999999-5555-7777-9999-7777|
	D|XXXXXXXX-XXXX-XXXX-XXXXXXXX-XXXXXXXX-X X X X X X X X -XXXXXXXX-XXXX-XXXX-XXXX-XXXX|
	A|33333333-5555-7777-55555555-77777777-8 8 8 8 8 8 8 8 -77777777-3333-5555-7777-5555|
	E|----------------------------------------------------------------------------------|

chorus: rhythm
	E|-------------------------------------------------------------------|
	B|-------------------------------------------------------------------|
	G|5555555555555555-7777777777777777----------------------------------|
	D|5555555555555555-7777777777777777-7777777777777777-3333333333333333|
	A|3333333333333333-5555555555555555-7777777777777777-3333333333333333|
	E|----------------------------------5555555555555555-1111111111111111|

interlude: lead
	E|----------- ------------- -------------- ---- -- ---- |
	B|----------- ------------- -------------- ---- -- ---- |
	G|-----9----10-------9----10--------9----10---12-10-9-10|
	D|----------- ------------- ---9999---99-- -9-X -X -X-X |
	A|8888---88-- -88888---88-- -8-0000---00-- -0-10-8 -7-8 |
	E|----------- ------------- -------------- ---- -- ---- |
	pm....   ..    .....   ..    . ....   ..    .

interlude: rhythm
	E|--------------------------------------------- -- ---- |
	B|--------------------------------------------- -- ---- |
	G|--------------------------------------------12-10-9-10|
	D|--------------------------------------------X -X -X-X |
	A|--------------------------------------------10-8 -7-8 |
	E|--------------------------------------------- -- ---- |

verse2: lead
	E|---------------------------------------------|
	B|---------------------------------------------|
	G|---------------------------------------------|
	D|------------------------------------------2--|
	A|----3----0------3----0-------3----0---5-3---3|
	E|111---11---1111---11---1-555---55---5--------|

verse2: rhythm
	E|---------------------------------|
	B|---------------------------------|
	G|---------------------------------|
	D|3333333333333333-7777777777777777|
	A|3333333333333333-7777777777777777|
	E|1111111111111111-5555555555555555|

rhythm1: both guitars
	E|---------|
	B|---------|
	G|5555-5555|
	D|5555-5555|
	A|3333-3333|
	E|---------|

bridge: lead
	E|---- ----- ----- ----- ----------------------|
	B|---- ----- ----- ----- ----------------------|
	G|---10----10----10----10----9----9----9----7/9|
	D|---- ----- ----- ----- ----------------------|
	A|88-- -88-- -88-- -88-- -77---77---77---77----|
	E|---- ----- ----- ----- ----------------------|

bridge: rhythm
	E|--- ---- ---- ---- ------------------|
	B|--- ---- ---- ---- ------------------|
	G|--- ---- ---- ---- -----9---9---9---9|
	D|--10---10---10---10-----9---9---9---9|
	A|--10---10---10---10---777-777-777-777|
	E|888 -888 -888 -888 /0----------------|
	pm..   ..   ..   ..     ..  ..  ..  ..

solo1: both guitars
	E|-------------------------------|
	B|-------------------------------|
	G|-------------------------------|
	D|33---------bass--------------33|
	A|33--------------solo---------33|
	E|11---------------------------11|

solo2: rhythm
	E|------ ----- --------- ------------- ----- ----- ---- ------|
	B|------ ----- --------- ------------- ----- ----- ---- ------|
	G|-----10----10----9---10---9--------10----10----12---10---9--|
	D|------ ----- --------- -------9999-- -99-- -99-- -9-- -9---9|
	A|8888-- -88-- -88---8-- -8---8-0000-- -00-- -00-- -0-- -0---0|
	E|------ ----- --------- ------------- ----- ----- ---- ------|
	pm....    ..    ..   .    .   . ....    ..    ..    .    .   .

outro: both guitars
	E|-----------------------------------------|
	B|-----------------------------------------|
	G|-----------------------------------------|
	D|5~-5~----7~-7~-------------------------5~|
	A|3~-3~----5~-5~----7~-7~----3~-3~-3~-3~-3~|
	E|------11-------11-5~-5~-11-1~-1~-1~-1~---|
	pm      ..       ..       ..


intro		4X for rythm, 2X for lead
verse1		4X for rythm, 2X for lead
chorus		2X
interlude	             2X
verse2		4X
rhythm1		1X
chorus		2X
bridge		4X for rythm, 2X for lead
solo1		1X
solo2		4X for rhythm, after two times lead plays chorus over it 2X
chorus		3X
outro		1X

end on:
	G|5
	D|X
	A|3
	E|-
            
Hard to play? Try these video lessons and learn fast. | Correct




comments powered by Disqus
↑ Back to top | Tablatures and chords are parodies/interpretations of the original songs. You may use it for private study, scholarship, research or language learning purposes only