>
 >
A Year Spent Cold 1

A Year Spent Cold 1 Guitar Tabs

Name Taken - A Year Spent Cold 1 chords, tabs, tablatures, lyrics

Guitar lessons | Add/correct | Request | Top 50 tabs Artists:  A B C D E F G H I J K L M N O P Q R S T U V W X Y Z 0-9

A Year Spent Cold 1 Guitar Tabs – Name Taken

CD, Sheet music, Poster

Do you like A Year Spent Cold 1? Share with your friends now
TabsTabs v2
Drop D Tuning
/or\ - Slide, Up or Down
h - hammer on
p - pull off
. - P.M
9x
9x - mute after strumming
7x
This is like a really easy cool sick ass song, its pretty correct...on the verse i just like 
did my own little thang' cuz i wanted to, it still sounds good so dont cry...hoe

Guitar 1.
e|-------------------
B|-------------------
G|-----6b---6--------
D|---0--------0------Do until pre verse..Let ring through out
A|-7------7----------
E|-------------------

Guitar 1...Pre-Verse
e|------5-------5--------------------------------------------|
B|-------------------------------2b-------2b-----------------|
G|------2-------2----------------2b-------2b-----------------|
D|-0-0-----0-0-----0-0-0----4-4------4-4------4-4-4----------|
A|-0-0-----0-0-----0-0-0----4-4------4-4------4-4-4----------|
E|-0-0-----0-0-----0-0-0----4-4------4-4------4-4-4----------|

e|------5-------5--------------------------------------------|
B|-------------------------------2b-------2b-----------------|
G|------2-------2----------------2b-------2b-----------------|
D|-0-0-----0-0-----0-0-0----4-4------4-4------0x-0x----------|
A|-0-0-----0-0-----0-0-0----4-4------4-4------0x-0x----------|
E|-0-0-----0-0-----0-0-0----4-4------4-4------0x-0x----------|

Pre-Verse Cont.
e|------5-------5--------------------------------------------|
B|-------------------------------2b-------2b-----------------|
G|------2-------2----------------2b-------2b-----------------|
D|-0-0-----0-0-----0-0-0----4-4------4-4------4-4-4----------|
A|-0-0-----0-0-----0-0-0----4-4------4-4------4-4-4----------|
E|-0-0-----0-0-----0-0-0----4-4------4-4------4-4-4----------|

e|------5-------5--------------------------------------------|
B|-------------------------------2b-------2b-----------------|
G|------2-------2----------------2b-------2b-----------------|
D|-0-0-----0-0-----0-0-0----4-4------4-4------0-0-0--4/------|
A|-0-0-----0-0-----0-0-0----4-4------4-4------0-0-0--4/------|
E|-0-0-----0-0-----0-0-0----4-4------4-4------0-0-0--4/------|

Guitar 1....Verse
e|------------------------------------------7---7---7---------9---9---9-----|
B|-----2---2---2---------2---2---2------------------------------------------|
G|---2---2---2---2-----2---2---2---2-----6------------------7---7---7---7---|
D|-------------------2-----------------7------7---7---7---0-----------------|
A|-0------------------------------------------------------------------------|
E|--------------------------------------------------------------------------|

Guitar 2....Verse                               *Come in when bass does*
e|-------------------------------------|   e|-------------------------------| 
B|-----2---2---2--------2---2---2------|   B|-------------------------------|
G|---2---2---2---2----2---2---2---2----|   G|-----6b---6--------------------| 
D|------------------2------------------|2X D|---0--------7------------------|4X
A|-0-----------------------------------|   A|-7------7----------------------|
E|-------------------------------------|   E|-------------------------------|

Guitar 1....Verse Cont.
e|-----7---7---7---------9---9---9---------7---7---7---------9---9---9------|
B|--------------------------------------------------------------------------|
G|---6-----------------7---7---7---7-----6-----------------7---7---7---7----|
D|-7-----7---7---7---0-----------------7-----7---7---7---0------------------|
A|--------------------------------------------------------------------------|
E|--------------------------------------------------------------------------|

Guitar 1...Pre-Chours
e|------5-------5--------------------------------------------|
B|-------------------------------2b-------2b-----------------|
G|------2-------2----------------2b-------2b-----------------|
D|-0-0-----0-0-----0-0-0----4-4------4-4------4-4-4----------|
A|-0-0-----0-0-----0-0-0----4-4------4-4------4-4-4----------|
E|-0-0-----0-0-----0-0-0----4-4------4-4------4-4-4----------|

e|------5-------5--------------------------------------------|
B|-------------------------------2b-------2b-----------------|
G|------2-------2----------------2b-------2b-----------------|
D|-0-0-----0-0-----0-0-0----4-4------4-4------0-0-0--4/------|
A|-0-0-----0-0-----0-0-0----4-4------4-4------0-0-0--4/------|
E|-0-0-----0-0-----0-0-0----4-4------4-4------0-0-0--4/------|

Guitar 1....Verse
e|------------------------------------------7---7---7---------9---9---9-----|
B|-----2---2---2---------2---2---2------------------------------------------|
G|---2---2---2---2-----2---2---2---2-----6------------------7---7---7---7---|
D|-------------------2-----------------7------7---7---7---0-----------------|
A|-0------------------------------------------------------------------------|
E|--------------------------------------------------------------------------|

Guitar 2....Verse
e|-------------------------------------|   e|-------------------------------| 
B|-----2---2---2--------2---2---2------|   B|-------------------------------|
G|---2---2---2---2----2---2---2---2----|   G|-----6b---6--------------------| 
D|------------------2------------------|2X D|---0--------7------------------|4X
A|-0-----------------------------------|   A|-7------7----------------------|
E|-------------------------------------|   E|-------------------------------|

Guitar 1....Verse Cont.
e|-----7---7---7---------9---9---9---------7---7---7---------9---9---9------|
B|--------------------------------------------------------------------------|
G|---6-----------------7---7---7---7-----6-----------------7---7---7---7----|
D|-7-----7---7---7---0-----------------7-----7---7---7---0------------------|
A|--------------------------------------------------------------------------|
E|--------------------------------------------------------------------------|

Guitar 1...Pre Chours
e|------5-------5--------------------------------------------|
B|-------------------------------2b-------2b-----------------|
G|------2-------2----------------2b-------2b-----------------|
D|-0-0-----0-0-----0-0-0----4-4------4-4------4-4-4----------|
A|-0-0-----0-0-----0-0-0----4-4------4-4------4-4-4----------|
E|-0-0-----0-0-----0-0-0----4-4------4-4------4-4-4----------|

e|------5-------5--------------------------------------------|
B|-------------------------------2b-------2b-----------------|
G|------2-------2----------------2b-------2b-----------------|
D|-0-0-----0-0-----0-0-0----4-4------4-4------0-0-0----------|
A|-0-0-----0-0-----0-0-0----4-4------4-4------0-0-0----------|
E|-0-0-----0-0-----0-0-0----4-4------4-4------0-0-0----------|
                                              . . .
Guitar 1...Chours
e|-------------------------------------------------------------------------------------------
B|--------------------------------------------------------------------2b-----2b--------------
G|----------------------6-6-6-6-6-6-6-6-6-----------------------------2b-----2b--------------
D|-7-7-7-7-7-7-7-7-7----5-5-5-5-5-5-5-5-5----4-4-4-4-4-4-4-4-4----0-0----0-0----0-0-0-0------A|-7-7-7-7-7-7-7-7-7----5-5-5-5-5-5-5-5-5----4-4-4-4-4-4-4-4-4----0-0----0-0----0-0-0-0------
E|-7-7-7-7-7-7-7-7-7----5-5-5-5-5-5-5-5-5----4-4-4-4-4-4-4-4-4----0-0----0-0----0-0-0-0------

e|-------------------------------------------------------------------------------------------
B|--------------------------------------------------------------------2b-----2b--------------
G|----------------------6-6-6-6-6-6-6-6-6-----------------------------2b-----2b--------------
D|-7-7-7-7-7-7-7-7-7----5-5-5-5-5-5-5-5-5----4-4-4-4-4-4-4-4-4----0-0----0-0----0-0-0-0------A|-7-7-7-7-7-7-7-7-7----5-5-5-5-5-5-5-5-5----4-4-4-4-4-4-4-4-4----0-0----0-0----0-0-0-0------
E|-7-7-7-7-7-7-7-7-7----5-5-5-5-5-5-5-5-5----4-4-4-4-4-4-4-4-4----0-0----0-0----0-0-0-0------

e----------------------------
B-----2b----2b---------------
G-----2b----2b---------------
D-0-0---0-0----0-0-0-0-------
A-0-0---0-0----0-0-0-0-------
E-0-0---0-0----0-0-0-0-------

Guitar 1...Verse, Play 1 1/2 X's
e|-----7---7---7---------9---9---9---------7---7---7---------9---9---9------|
B|--------------------------------------------------------------------------|
G|---6-----------------7---7---7---7-----6-----------------7---7---7---7----|
D|-7-----7---7---7---0-----------------7-----7---7---7---0------------------|
A|--------------------------------------------------------------------------|
E|--------------------------------------------------------------------------|
**Did not try the 2nd guitar, who cares!, HOE!

Guitar 1...Chours
e|-------------------------------------------------------------------------------------------
B|--------------------------------------------------------------------2b-----2b--------------
G|----------------------6-6-6-6-6-6-6-6-6-----------------------------2b-----2b--------------
D|-7-7-7-7-7-7-7-7-7----5-5-5-5-5-5-5-5-5----4-4-4-4-4-4-4-4-4----0-0----0-0----0-0-0-0------A|-7-7-7-7-7-7-7-7-7----5-5-5-5-5-5-5-5-5----4-4-4-4-4-4-4-4-4----0-0----0-0----0-0-0-0------
E|-7-7-7-7-7-7-7-7-7----5-5-5-5-5-5-5-5-5----4-4-4-4-4-4-4-4-4----0-0----0-0----0-0-0-0------

e|----------------------------------------------------------------------------------
B|--------------------------------------------------------------------2b-----2b--------------
G|----------------------6-6-6-6-6-6-6-6-6-----------------------------2b-----2b--------------
D|-7-7-7-7-7-7-7-7-7----5-5-5-5-5-5-5-5-5----4-4-4-4-4-4-4-4-4----0-0----0-0----0-0-0-0------
A|-7-7-7-7-7-7-7-7-7----5-5-5-5-5-5-5-5-5----4-4-4-4-4-4-4-4-4----0-0----0-0----0-0-0-0------
E|-7-7-7-7-7-7-7-7-7----5-5-5-5-5-5-5-5-5----4-4-4-4-4-4-4-4-4----0-0----0-0----0-0-0-0------

e------------------------------
B-----2b----2b-----------------
G-----2b----2b-----------------
D-0-0---0-0----0-0-0-0--0~-----
A-0-0---0-0----0-0-0-0--0~-----
E-0-0---0-0----0-0-0-0--0~-----

Guitar 1...Little break down part
e-------------------------------------------------------------------------------
B-3-----2-----5-----2-----2h3------3-----2-----5-----2-----2h3p2h3--------------
G---2-2---2-2---2-2---2-2-----2------2-2---2-2---2-2---2-2----------------------
D------------------------------------------------------------------------------- 2X
A-------------------------------------------------------------------------------
E-------------------------------------------------------------------------------

Guitar 1.
e-5-----4-----5/4---4-----4/12\10/5--------------
B------------------------------------------------
G---2-2---2-2-----2---2-2------------------------
D------------------------------------------------
A------------------------------------------------
E------------------------------------------------

Guitar 1.
e-----------------------------------5---------5-----5---------5---------5-----5-
B-------------------------------------------------------------------------------
G-----------------------------------2---------2-----2---------2---------2-----2-
D-4-4-4-4-4----2-2-2-2-2----0-0-0-0---0-0-0-0---0-0---0-0-0-0---0-0-0-0---0-0---
A-4-4-4-4-4----2-2-2-2-2----0-0-0-0---0-0-0-0---0-0---0-0-0-0---0-0-0-0---0-0---
E-4-4-4-4-4----2-2-2-2-2----0-0-0-0---0-0-0-0---0-0---0-0-0-0---0-0-0-0---0-0---
                            . . . .   . . . .   . .   . . . .   . . . .   . .

Guitar 1...Cont.
e-------------------------5b--------5---------5-----5---------5---------5-----5-
B-------------------------------------------------------------------------------
G-------------------------2b--------2---------2-----2---------2---------2-----2-
D-4-4-4-4-4----2-2-2-2-2----0-0-0-0---0-0-0-0---0-0---0-0-0-0---0-0-0-0---0-0---
A-4-4-4-4-4----2-2-2-2-2----0-0-0-0---0-0-0-0---0-0---0-0-0-0---0-0-0-0---0-0---
E-4-4-4-4-4----2-2-2-2-2----0-0-0-0---0-0-0-0---0-0---0-0-0-0---0-0-0-0---0-0---

Guitar 1...Outro.
e----------------------------5---------5-----5---------5---------5-----5--------
B-------------------------------------------------------------------------------
G-6--------------------------2---------2-----2---------2---------2-----2--------
D-x-10x's--2---------0-0-0-0---0-0-0-0---0-0---0-0-0-0---0-0-0-0---0-0----------
A-4--------2-10x's---0-0-0-0---0-0-0-0---0-0---0-0-0-0---0-0-0-0---0-0----------
E-4--------2---------0-0-0-0---0-0-0-0---0-0---0-0-0-0---0-0-0-0---0-0----------
                     . . . .   . . . .   . .   . . . .   . . . .   . .

Guitar 1...Cont.
e---------------------------5--------5------5--------4--------4------4----------
B-------------------------------------------------------------------------------
G-6-------------------------2--------2------2--------1--------1------1----------
D-x-10x's--2---------000000---000000---0000---000000---000000---0000------------
A-4--------2-10x's---000000---000000---0000---000000---000000---0000------------
E-4--------2---------000000---000000---0000---000000---000000---0000------------

e--------5--------5------5--------4--------4~/5~--------------------------------
B-------------------------------------------------------------------------------
G--------2--------2------2--------1--------1~/2~--------------------------------
D-000000---000000---0000---000000---000000--------------------------------------
A-000000---000000---0000---000000---000000--------------------------------------
E-000000---000000---0000---000000---000000--------------------------------------

                   
Well thats it! have fun its like all soundin pretty good, if like u play with 
ur band or something it'll sound pretty cool so there!





Comments


Popular Name Taken tabs & chords
Control Chords
I Quit My Scene Chords
You Do It So Well Chords
Cover Up Tabs
Safety Of Routine Tabs
Safety Of Routine 1 Tabs
Someone Tabs
Today 2 Tabs
Hold On For Your Dearest Lie Ukulele
Write Back Ukulele


Song lyrics



↑ Back to top | Tablatures and chords are parodies/interpretations of the original songs. You may use it for private study, scholarship, research or language learning purposes only
© 2014 AZChords.com Contact us | Privacy policy | DMCA | Add/correct tabs | Request tabs | Top 50 tabs