>
 >
A Year Spent Cold

A Year Spent Cold Guitar Tabs

Name Taken - A Year Spent Cold chords, tabs, tablatures, lyrics

Guitar lessons | Add/correct | Request | Top 50 tabs Artists:  A B C D E F G H I J K L M N O P Q R S T U V W X Y Z 0-9

A Year Spent Cold Guitar Tabs – Name Taken

CD, Sheet music, Poster

Do you like A Year Spent Cold? Share with your friends now
TabsTabs v2


/  - slide
b  - bend
x  - Mute
.  - palm mute
  

Tuning: DADGBE

This is my first tabs submitted. I think it should be accurate. It's an awesome song.


Intro- Guitar 1

e|-----------------------------------------------------------| 
B|-----------------------------------------------------------| 
G|-------6b--6-----------------------------------------------| 
D|-----0---0---0---(x4)--------------------------------------| 
A|---7-------------------------------------------------------| 
D|-----------------------------------------------------------|

Post Intro- Guitar 2

e|-------------|--------------|--------------|---------------| 
B|-------------|--------------|--------------|---------------| 
G|-------------|--------------|--------------|---------------|
D|---0~--------|---4~---------|---0~---------|---4~----------|
A|---0~--------|---4~---------|---0~---------|---4~----------|
D|---0~--------|---4~---------|---0~---------|---4~----------|

Guitar 1 & 2
e|-------5------5--------------------------------------------| 
B|-------x------x--------------2b-----2b---------------------| 
G|-------2------2--------------2b-----2b---------------------| 
D|---00-----00-----0000-----44-----44------44/77----(x2)-----| 
A|---00-----00-----0000-----44-----44------44/77-------------| 
D|---00-----00-----0000-----44-----44------44/77-------------|

Verse- Guitar 1
e|------------------------------|----------------------------|
B|------------------------------|----------------------------| 
G|------------------------------|----------------------------| 
D|-------6---6---6--------------|-------6---6---6------------|
A|-----0---0---0---0------------|-----0---0---0---0----------|
D|---7--------------------------|---7------------------------|

e|------------------------------|----------------------------|
B|------------------------------|----------------------------| 
G|------------------------------|----------------------------| (x3)
D|-------6---6---6--------------|-------6---6---6b-----------|
A|-----0---0---0---0------------|-----0---0---0---0----------|
D|---7--------------------------|---7------------------------|

Verse- Guitar 2

e|-x----------------------------|-x--------------------------| 
B|-x----------------------------|-x--------------------------| 
G|-x----------------------------|-x--------------------------| 
D|-x----------------------------|-x--------------------------| 
A|-x----------------------------|-x--------------------------| 
D|-x----------------------------|-x--------------------------|


e|---------7----7----7----------|--------9----9----9---------| 
B|------10---10---10---10-------|-----10---10---10---10------| 
G|---7--------------------------|---7------------------------| 
D|------------------------------|----------------------------| (x3)
A|------------------------------|----------------------------| 
D|------------------------------|----------------------------|


Pre verse
Guitar 1 & 2
e|-------5------5--------------------------------------------| 
B|-------x------x--------------2b-----2b---------------------| 
G|-------2------2--------------2b-----2b---------------------| 
D|---00-----00-----0000-----44-----44------44/77----(x2)-----| 
A|---00-----00-----0000-----44-----44------44/77-------------| 
D|---00-----00-----0000-----44-----44------44/77-------------|


Verse- Guitar 1
e|------------------------------|----------------------------|
B|------------------------------|----------------------------| 
G|------------------------------|----------------------------| 
D|-------6---6---6--------------|-------6---6---6b-----------|
A|-----0---0---0---0------------|-----0---0---0---0----------|
D|---7--------------------------|---7------------------------|

e|------------------------------|----------------------------|
B|------------------------------|----------------------------| 
G|------------------------------|----------------------------| (x3)
D|-------6--6---6b--------------|-------6---6---6b-----------|
A|-----0---0---0---0------------|-----0---0---0---0----------|
D|---7--------------------------|---7------------------------|


Verse- Guitar 2

e|-x----------------------------|-x--------------------------| 
B|-x----------------------------|-x--------------------------| 
G|-x----------------------------|-x--------------------------| 
D|-x----------------------------|-x--------------------------| 
A|-x----------------------------|-x--------------------------| 
D|-x----------------------------|-x--------------------------|


e|---------7----7----7----------|--------9----9----9---------| 
B|------10---10---10---10-------|-----10---10---10---10------| 
G|---7--------------------------|---7------------------------| 
D|------------------------------|----------------------------| (x3)
A|------------------------------|----------------------------| 
D|------------------------------|----------------------------|

Guitar 1 & 2
e|-------5------5--------------------------------------------| 
B|-------x------x--------------2b-----2b---------------------| 
G|-------2------2--------------2b-----2b---------------------| 
D|---00-----00-----0000-----44-----44------44/77----(x2)-----| 
A|---00-----00-----0000-----44-----44------44/77-------------| 
D|---00-----00-----0000-----44-----44------44/77-------------|

Chorus- Guitar 1 & 2
e|-----------------------------------------------------------|
B|-----------------------------------------------------------|
G|-----------------------------------------------------------|
D|---777777777777---666666x666666---444444444444-------------|
A|---777777777777---666666x666666---444444444444-------------|
D|---777777777777---666666x666666---444444444444-------------|

e|-------5------5--------------------------------------------| 
B|-------x------x--------------------------------------------| 
G|-------2------2--------------------------------------------| 
D|---00-----00-----0000--------------------------------------| 
A|---00-----00-----0000--------------------------------------| 
D|---00-----00-----0000--------------------------------------|

e|-----------------------------------------------------------|
B|-----------------------------------------------------------|
G|-----------------------------------------------------------|
D|---777777777777---666666x666666---444444444444-------------|
A|---777777777777---666666x666666---444444444444-------------|
D|---777777777777---666666x666666---444444444444-------------|

e|-------5------5--------------5------5----------------------| 
B|-------x------x--------------x------x----------------------| 
G|-------2------2--------------2------2----------------------| 
D|---00-----00-----0000----00-----00-----0000------0~--------| 
A|---00-----00-----0000----00-----00-----0000------0~--------| 
D|---00-----00-----0000----00-----00-----0000------0~--------|

Verse
Guitar 1

e|------------------------------|----------------------------|
B|------------------------------|----------------------------| 
G|------------------------------|----------------------------| (x4)
D|-------6---6---6--------------|-------6---6---6b-----------|
A|-----0---0---0---0------------|-----0---0---0---0----------|
D|---7--------------------------|---7------------------------|

Guitar 2
e|---------7----7----7----------|--------9----9----9---------| 
B|------10---10---10---10-------|-----10---10---10---10------| 
G|---7--------------------------|---7------------------------| 
D|------------------------------|----------------------------| (x4)
A|------------------------------|----------------------------| 
D|------------------------------|----------------------------|

Chorus- Guitar 1 & 2
e|-----------------------------------------------------------|
B|-----------------------------------------------------------|
G|-----------------------------------------------------------|
D|---777777777777---666666x666666---444444444444-------------|
A|---777777777777---666666x666666---444444444444-------------|
D|---777777777777---666666x666666---444444444444-------------|

e|-------5------5--------------------------------------------| 
B|-------x------x--------------------------------------------| 
G|-------2------2--------------------------------------------| 
D|---00-----00-----0000--------------------------------------| 
A|---00-----00-----0000--------------------------------------| 
D|---00-----00-----0000--------------------------------------|

e|-----------------------------------------------------------|
B|-----------------------------------------------------------|
G|-----------------------------------------------------------|
D|---777777777777---666666x666666---444444444444-------------|
A|---777777777777---666666x666666---444444444444-------------|
D|---777777777777---666666x666666---444444444444-------------|

e|-------5------5--------------5------5----------------------| 
B|-------x------x--------------x------x----------------------| 
G|-------2------2--------------2------2----------------------| 
D|---00-----00-----0000----00-----00-----0000------0~--------| 
A|---00-----00-----0000----00-----00-----0000------0~--------| 
D|---00-----00-----0000----00-----00-----0000------0~--------|

Before the Breakdown- Guitar 1 (distortion)
e|-------------------|------------------|--------------------| 
B|-------------------|------------------|--------------------| 
G|-------------------|------------------|--------------------| 
D|--0~---------------|--0~--------------|--0~----------------| 
A|--0~---------------|--0~--------------|--0~----------------| 
D|--0~---------------|--0~--------------|--0~----------------|

Guitar 2
e|-----------------------------------------------------------| 
B|-----------------------------------------------------------| 
G|-----------------------------------------------------------| 
D|--7/8-77---7/8-77------------------------------------------| 
A|---x--xx----x--xx------------------------------------------| 
D|--5/6-55---5/6-55------------------------------------------| 

Breakdown
Guitar 1 & 2
e|----------------------5-------5-------------5------5---5----| 
B|----------------------x-------x-------------x------x---x----| 
G|--66666--44444--------2-------2-------------2------2---2----| 
D|--66666--44444--0000-----0000---00----0000----0000--00------| 
A|--44444--22222--0000-----0000---00----0000----0000--00------| 
D|----------------0000-----0000---00----0000----0000--00------| 
                  ....     ....   ..    ....    ....  ..

e|----------------5~------5------5----5---------5------5-----5-----| 
B|----------------x-------x------x----x---------x------x-----x-----| 
G|--66666--44444--2~------2------2----2---------2------2-----2-----| 
D|--66666--44444-----00-0---00-0---00------00-0---00-0----00-------| 
A|--44444--22222-----00-0---00-0---00------00-0---00-0----00-------|
D|-------------------00-0---00-0---00------00-0---00-0----00-------| 

Guitars 1 & 2                                
e|-----------------------------------------------------------| 
B|-----------------------------------------------------------| 
G|---666666666666-444444444444-------------------------------| 
D|---666666666666-444444444444-------------------------------| 
A|---444444444444-222222222222-------------------------------| 
D|-----------------------------------------------------------|

e|----------5-------5----5--------5-----5----5---------------| 
B|----------x-------x----x--------x-----x----x---------------| 
G|----------2-------2----2--------2-----2----2---------------| 
D|----0000-----0000---00----0000----0000--00-----------------| 
A|----0000-----0000---00----0000----0000--00-----------------| 
D|----0000-----0000---00----0000----0000--00-----------------| 
      ....     ....   ..    ....    ....  ..

e|-----------------------------------------------------------| 
B|-----------------------------------------------------------| 
G|---666666666666-444444444444-------------------------------| 
D|---666666666666-444444444444-------------------------------| 
A|---444444444444-222222222222-------------------------------| 
D|-----------------------------------------------------------|

e|----------5-------5----5-----------------------------------| 
B|----------x-------x----x--------2b----2b---2b--------------| 
G|----------2-------2----2--------2b----2b---2b--------------| (x2)
D|----0000-----0000---00----0000----0000--00-----------------| 
A|----0000-----0000---00----0000----0000--00-----------------| 
D|----0000-----0000---00----0000----0000--00-----------------| 
      ....     ....   ..    ....    ....  ..





Comments


Popular Name Taken tabs & chords
Safety Routine Bass Tabs
Control Chords
Write Back Chords
Clear And Conscious Intro Tabs
For Sunday 1 Tabs
I Quit My Scene Tabs
Safety Of Routine Tabs
Today Tabs
We Give Up Sometimes Tabs
You Do It So Well Ukulele


Song lyrics



↑ Back to top | Tablatures and chords are parodies/interpretations of the original songs. You may use it for private study, scholarship, research or language learning purposes only
© 2014 AZChords.com Contact us | Privacy policy | DMCA | Add/correct tabs | Request tabs | Top 50 tabs