» » »

Nailpin, Worn Out Tabs (ver.1)

Artists:  A B C D E F G H I J K L M N O P Q R S T U V W X Y Z # 

Worn Out Tabs (ver.1)

Nailpin Tabs
Rating:
5/5 (1 vote)
Worn Out lessons Tabs too difficult? Try these video lessons and learn fast
                (Intro)
This is the tab to the chorus (need still some time to figure it out:p!
THECOOLGUY rules, eindert rules, the petemeister rulesssss!

e---------------------------------|
B---------------------------------|
G------------888--444--666---67---|
D------------888--444--666-6-67---|  X2
A------------666--222--444-6-45---|
E--------------------------4------|
        PM   ...  ...  ... . ..

e---------------------------------|
B---------------------------------|
G------------888--444--666---67---|
D------------888--444--666-6-67---|  X2
A------------666--222--444-6-45---|
E--------------------------4------|

e-------------------------------------------------|
B-------------------------------------------------|
G------------888888-666666-444444-666666----------|
D------------888888-666666-444444-666666----------|
A------------666666-444444-222222-444444----------|
E-------------------------------------------------|
        PM   ...... ......  ......  ......


NAILPIN AND THE PETEMEISTER(and thecoolguy55) RULES
            

comments powered by Disqus
↑ Back to top | Nailpin Tabs for Worn Out. Lyrics for acoustic guitar and electric guitar. Tablatures and chords are parodies/interpretations of the original songs. You may use it for private study, scholarship, research or language learning purposes only