>
 >
Worn Out 1

Worn Out 1 Guitar Tabs

Nailpin - Worn Out 1 chords, tabs, tablatures, lyrics

Guitar lessons | Add/correct | Request | Top 50 tabs Artists:  A B C D E F G H I J K L M N O P Q R S T U V W X Y Z 0-9

Worn Out 1 Guitar Tabs – Nailpin

CD, Sheet music, Poster

Do you like Worn Out 1? Share with your friends now
TabsTabs v2
                                                                                        Nailpin
1ste guitar



     PM PM PM PM PM PM PM PM PM PM PM PM PM PM PM PM  
     S  S  S  S  S  S  S  S  S  S  S  S  S  S  S  S   
E||--------------------------------------------------|
B||--------------------------------------------------|
G||--------------------------------------------------|
D||--8--8--8--4--4--4--6--6--6-----------6--6--7--7--|
A||--6--6--6--2--2--2--4--4--4--6--6--6--4--4--5--5--|
E||-----------------------------4--4--4--------------|


  PM PM PM PM PM PM PM PM PM PM PM PM PM PM PM PM                                       
  S  S  S  S  S  S  S  S  S  S  S  S  S  S  S  S       S S S S S S S S S S S S S S S S  
--------------------------------------------------||-----------------------------------|
--------------------------------------------------||-----------------------------------|
--------------------------------------------------||*--8-8-8-4-4-4-6-6-6-------6-6-7-7-|
--8--8--8--4--4--4--6--6--6-----------7--7--7--7--||*--8-8-8-4-4-4-6-6-6-6-6-6-6-6-7-7-|
--6--6--6--2--2--2--4--4--4--6--6--6--5--5--5--5--||---6-6-6-2-2-2-4-4-4-6-6-6-4-4-5-5-|
-----------------------------4--4--4--------------||---------------------4-4-4---------|


  S S S S S S S S S S S S S S S S    
-----------------------------------||
-----------------------------------||
--8-8-8-4-4-4-6-6-6-------7-7-7-7-*||
--8-8-8-4-4-4-6-6-6-6-6-6-7-7-7-7-*||
--6-6-6-2-2-2-4-4-4-6-6-6-5-5-5-5--||
--------------------4-4-4----------||


   2de keer valt zang in... Come around cause ...                                           
   PM                                             PM   PM PM PM   PM PM PM   PM PM PM   PM  
   S                                              S  S S  S  S  S S  S  S  S S  S  S  S S   
-------------------------------------------------------------------------------------------|
-------------------------------------------------------------------------------------------|
*------------------------------------------------------------------------------------------|
*--8----------------------------------------------8----8--8--8----8--6--6----6--6--6----6--|
---6----------------------------------------------6----6--6--6----6--4--4----4--4--4----4--|
-------------------------------------------------------------------------------------------|


  PM PM   PM PM PM   PM PM PM   PM PM PM   PM    
  S  S  S S  S  S  S S  S  S  S S  S  S  S S     
-----------------------------------------------||
-----------------------------------------------||
----------------------------------------------*||
--4--4----4--4--4----4--6--6----6--6--6----6--*||
--2--2----2--2--2----2--4--4----4--4--4----4---||
-----------------------------------------------||


   PM PM   PM PM PM   PM PM PM   PM PM PM   PM  
   S  S  S S  S  S  S S  S  S  S S  S  S  S S   
-----------------------------------------------|
-----------------------------------------------|
*----------------------------------------------|
*--8--8----8--8--8----8--6--6----6--6--6----6--|
---6--6----6--6--6----6--4--4----4--4--4----4--|
-----------------------------------------------|


   PM PM   PM PM PM   PMPM PM   PM PM PM   PM    
   S  S S  S  S  S S  S S  S  S S  S  S  S S     
-----------------------------------------------||
-----------------------------------------------||
----------------------------------------------*||
--11-11---11-11-11---11-6--6----6--6--6----6--*||
---9--9----9--9--9----9-4--4----4--4--4----4---||
-----------------------------------------------||


  PM PM   PM PM PM   PM PM PM   PM PM PM   PM    PM PM   PM PM PM   PM PM PM   PM PM PM   PM  
  S  S  S S  S  S  S S  S  S  S S  S  S  S S     S  S  S S  S  S  S S  S  S  S S  S  S  S S   
----------------------------------------------|----------------------------------------------|
----------------------------------------------|----------------------------------------------|
----------------------------------------------|----------------------------------------------|
--8--8----8--8--8----8--6--6----6--6--6----6--|--4--4----4--4--4----4--6--6----6--6--6----6--|
--6--6----6--6--6----6--4--4----4--4--4----4--|--2--2----2--2--2----2--4--4----4--4--4----4--|
----------------------------------------------|----------------------------------------------|


  PM PM   PM PM PM   PM PM PM   PM PM PM   PM    PM PM   PM PM PM   PM PM PM            
  S  S  S S  S  S  S S  S  S  S S  S  S  S S     S  S  S S  S  S  S S  S  S  S E  E  S  
----------------------------------------------|----------------------------------------|
----------------------------------------------|----------------------------------------|
----------------------------------------------|----------------------------------------|
--8--8----8--8--8----8--6--6----6--6--6----6--|--4--4----4--4--4----4--6--6------------|
--6--6----6--6--6----6--4--4----4--4--4----4--|--2--2----2--2--2----2--4--4------------|
----------------------------------------------|----------------------------------------|


  S S S S S S S S S S S S S S S S    S S S S S S S S S S S S S S S S  
----------------------------------|----------------------------------|
----------------------------------|----------------------------------|
--8-8-8-8-8-8-8-8-8-8-8-8-8-8-8-8-|--6-6-6-6-6-6-6-6-6-6-6-6-6-6-6-6-|
--8-8-8-8-8-8-8-8-8-8-8-8-8-8-8-8-|--6-6-6-6-6-6-6-6-6-6-6-6-6-6-6-6-|
--6-6-6-6-6-6-6-6-6-6-6-6-6-6-6-6-|--4-4-4-4-4-4-4-4-4-4-4-4-4-4-4-4-|
----------------------------------|----------------------------------|


  S S S S S S S S S S S S S S S S    S S S S S S S S S S S S S S S S  
----------------------------------|----------------------------------|
----------------------------------|----------------------------------|
--4-4-4-4-4-4-4-4-4-4-4-4-4-4-4-4-|--6-6-6-6-6-6-6-6-7-7-7-7-------7-|
--4-4-4-4-4-4-4-4-4-4-4-4-4-4-4-4-|--6-6-6-6-6-6-6-6-7-7-7-7-------7-|
--2-2-2-2-2-2-2-2-2-2-2-2-2-2-2-2-|--4-4-4-4-4-4-4-4-5-5-5-5-------5-|
----------------------------------|----------------------------------|


  S S S S S S S S S S S S S S S S    S S S S S S S S S S S S S S S S  
----------------------------------|----------------------------------|
----------------------------------|----------------------------------|
--8-8-8-8-8-8-8-8-8-8-8-8-8-8-8-8-|--6-6-6-6-6-6-6-6-6-6-6-6-6-6-6-6-|
--8-8-8-8-8-8-8-8-8-8-8-8-8-8-8-8-|--6-6-6-6-6-6-6-6-6-6-6-6-6-6-6-6-|
--6-6-6-6-6-6-6-6-6-6-6-6-6-6-6-6-|--4-4-4-4-4-4-4-4-4-4-4-4-4-4-4-4-|
----------------------------------|----------------------------------|


  S S S S S S S S S S S S S S S S    S S S S S S S S S S S S S S S S  
----------------------------------|----------------------------------|
----------------------------------|----------------------------------|
--4-4-4-4-4-4-4-4-4-4-4-4-4-4-4-4-|--6-6-6-6-6-6-6-6-7-7-7-7---7---7-|
--4-4-4-4-4-4-4-4-4-4-4-4-4-4-4-4-|--6-6-6-6-6-6-6-6-7-7-7-7---7---7-|
--2-2-2-2-2-2-2-2-2-2-2-2-2-2-2-2-|--4-4-4-4-4-4-4-4-5-5-5-5---5---5-|
----------------------------------|----------------------------------|


    PM PM   PM PM PM   PM PM PM   PM PM PM   PM  
    S  S  S S  S  S  S S  S  S  S S  S  S  S S   
|-----------------------------------------------|
|-----------------------------------------------|
|*----------------------------------------------|
|*--8--8----8--8--8----8--6--6----6--6--6----6--|
|---6--6----6--6--6----6--4--4----4--4--4----4--|
|-----------------------------------------------|


  PM PM   PM PM PM   PM PM PM   PM PM PM   PM    
  S  S  S S  S  S  S S  S  S  S S  S  S  S S     
-----------------------------------------------||
-----------------------------------------------||
----------------------------------------------*||
--4--4----4--4--4----4--6--6----6--6--6----6--*||
--2--2----2--2--2----2--4--4----4--4--4----4---||
-----------------------------------------------||


   PM PM   PM PM PM   PM PM PM   PM PM PM   PM  
   S  S  S S  S  S  S S  S  S  S S  S  S  S S   
-----------------------------------------------|
-----------------------------------------------|
*----------------------------------------------|
*--8--8----8--8--8----8--6--6----6--6--6----6--|
---6--6----6--6--6----6--4--4----4--4--4----4--|
-----------------------------------------------|


   PM PM   PM PM PM   PMPM PM   PM PM PM   PM                                   
   S  S S  S  S  S S  S S  S  S S  S  S  S S       S E  S S E  S S E  S S E  S  
-----------------------------------------------||------------------------------|
-----------------------------------------------||------------------------------|
----------------------------------------------*||------------------------------|
--11-11---11-11-11---11-6--6----6--6--6----6--*||--8-8--8-8-8--8-6-6--6-6-6--6-|
---9--9----9--9--9----9-4--4----4--4--4----4---||--6-6--6-6-6--6-4-4--4-4-4--4-|
-----------------------------------------------||------------------------------|


   S  E   S  S  E   S S E  S S E  S    S E  S S E  S S E  S S E  S  
------------------------------------|------------------------------|
------------------------------------|------------------------------|
------------------------------------|------------------------------|
--11-11--11-11-11--11-6-6--6-6-6--6-|--8-8--8-8-8--8-6-6--6-6-6--6-|
---9--9---9--9--9---9-4-4--4-4-4--4-|--6-6--6-6-6--6-4-4--4-4-4--4-|
------------------------------------|------------------------------|


   S  E   S  S  E   S S S S S S S S S    S S S S S S S S S S S S S S S S  
--------------------------------------|----------------------------------|
--------------------------------------|----------------------------------|
--------------------------------------|--8-8-8-8-8-8-8-8-8-8-8-8-8-8-8-8-|
--11-11--11-11-11--11-6-6-------------|--8-8-8-8-8-8-8-8-8-8-8-8-8-8-8-8-|
---9--9---9--9--9---9-4-4-------------|--6-6-6-6-6-6-6-6-6-6-6-6-6-6-6-6-|
--------------------------------------|----------------------------------|


  S S S S S S S S S S S S S S S S    S S S S S S S S S S S S S S S S  
----------------------------------|----------------------------------|
----------------------------------|----------------------------------|
--6-6-6-6-6-6-6-6-6-6-6-6-6-6-6-6-|--4-4-4-4-4-4-4-4-4-4-4-4-4-4-4-4-|
--6-6-6-6-6-6-6-6-6-6-6-6-6-6-6-6-|--4-4-4-4-4-4-4-4-4-4-4-4-4-4-4-4-|
--4-4-4-4-4-4-4-4-4-4-4-4-4-4-4-4-|--2-2-2-2-2-2-2-2-2-2-2-2-2-2-2-2-|
----------------------------------|----------------------------------|


  S S S S S S S S S S S S S S S S    S S S S S S S S S S S S S S S S  
----------------------------------|----------------------------------|
----------------------------------|----------------------------------|
--6-6-6-6-6-6-6-6-7-7-7-7-------7-|--8-8-8-8-8-8-8-8-8-8-8-8-8-8-8-8-|
--6-6-6-6-6-6-6-6-7-7-7-7-------7-|--8-8-8-8-8-8-8-8-8-8-8-8-8-8-8-8-|
--4-4-4-4-4-4-4-4-5-5-5-5-------5-|--6-6-6-6-6-6-6-6-6-6-6-6-6-6-6-6-|
----------------------------------|----------------------------------|


  S S S S S S S S S S S S S S S S    S S S S S S S S S S S S S S S S  
----------------------------------|----------------------------------|
----------------------------------|----------------------------------|
--6-6-6-6-6-6-6-6-6-6-6-6-6-6-6-6-|--4-4-4-4-4-4-4-4-4-4-4-4-4-4-4-4-|
--6-6-6-6-6-6-6-6-6-6-6-6-6-6-6-6-|--4-4-4-4-4-4-4-4-4-4-4-4-4-4-4-4-|
--4-4-4-4-4-4-4-4-4-4-4-4-4-4-4-4-|--2-2-2-2-2-2-2-2-2-2-2-2-2-2-2-2-|
----------------------------------|----------------------------------|


                                ^           PM PM PM PM PM PM PM PM PM PM PM PM PM PM PM PM  
  S S S S S S S S S S S S S S S S           S  S  S  S  S  S  S  S  S  S  S  S  S  S  S  S   
----------------------------------|----||---------------------------------------------------|
----------------------------------|----||---------------------------------------------------|
--6-6-6-6-6-6-6-6-7-7-7-7---7---7-|----||*--------------------------------------------------|
--6-6-6-6-6-6-6-6-7-7-7-7---7---7-|----||*--8--8--8--4--4--4--6--6--6-----------6--6--7--7--|
--4-4-4-4-4-4-4-4-5-5-5-5---5---5-|----||---6--6--6--2--2--2--4--4--4--6--6--6--4--4--5--5--|
----------------------------------|----||------------------------------4--4--4--------------|


  PM PM PM PM PM PM PM PM PM PM PM PM PM PM PM PM                                        
  S  S  S  S  S  S  S  S  S  S  S  S  S  S  S  S   4x   S S S S S S S S S S S S S S S S  
---------------------------------------------------||-----------------------------------|
---------------------------------------------------||-----------------------------------|
--------------------------------------------------*||*--8-8-8-4-4-4-6-6-6-------6-6-7-7-|
--8--8--8--4--4--4--6--6--6-----------7--7--7--7--*||*--8-8-8-4-4-4-6-6-6-6-6-6-6-6-7-7-|
--6--6--6--2--2--2--4--4--4--6--6--6--5--5--5--5---||---6-6-6-2-2-2-4-4-4-6-6-6-4-4-5-5-|
-----------------------------4--4--4---------------||---------------------4-4-4---------|


  S S S S S S S S S S S S S S S S    
-----------------------------------||
-----------------------------------||
--8-8-8-4-4-4-6-6-6-------7-7-7-7-*||
--8-8-8-4-4-4-6-6-6-6-6-6-7-7-7-7-*||
--6-6-6-2-2-2-4-4-4-6-6-6-5-5-5-5--||
--------------------4-4-4----------||


    I'm dying... (gewoon uw fretboard afslide zonder                      
    NH                                               NH     NH      NH    
    Q                                                Q      Q       Q     
-------------------------------------------------------------------------|
-------------------------------------------------------------------------|
-------------------------------------------------------------------------|
--<>5----------------------------------------------<>7----<>9----<>12----|
--<>5----------------------------------------------<>7----<>9----<>12----|
--<>5----------------------------------------------<>7----<>9----<>12----|


            te drukken)                                                         
  S S S S S S           S S S S S S S S S S    S S S S S S S S S S S S S S S S  
--------------------------------------------|----------------------------------|
--------------------------------------------|----------------------------------|
--8-8-8-8-8-8-----------8-8-8-8-8-8-8-8-8-8-|--6-6-6-6-6-6-6-6-6-6-6-6-6-6-6-6-|
--8-8-8-8-8-8-----------8-8-8-8-8-8-8-8-8-8-|--6-6-6-6-6-6-6-6-6-6-6-6-6-6-6-6-|
--6-6-6-6-6-6-----------6-6-6-6-6-6-6-6-6-6-|--4-4-4-4-4-4-4-4-4-4-4-4-4-4-4-4-|
--------------------------------------------|----------------------------------|


  S S S S S S S S S S S S S S S S    S S S S S S S S S S S S S S S S  
----------------------------------|----------------------------------|
----------------------------------|----------------------------------|
--4-4-4-4-4-4-4-4-4-4-4-4-4-4-4-4-|--6-6-6-6-6-6-6-6-7-7-7-7-------7-|
--4-4-4-4-4-4-4-4-4-4-4-4-4-4-4-4-|--6-6-6-6-6-6-6-6-7-7-7-7-------7-|
--2-2-2-2-2-2-2-2-2-2-2-2-2-2-2-2-|--4-4-4-4-4-4-4-4-5-5-5-5-------5-|
----------------------------------|----------------------------------|


  S S S S S S S S S S S S S S S S    S S S S S S S S S S S S S S S S  
----------------------------------|----------------------------------|
----------------------------------|----------------------------------|
--8-8-8-8-8-8-8-8-8-8-8-8-8-8-8-8-|--6-6-6-6-6-6-6-6-6-6-6-6-6-6-6-6-|
--8-8-8-8-8-8-8-8-8-8-8-8-8-8-8-8-|--6-6-6-6-6-6-6-6-6-6-6-6-6-6-6-6-|
--6-6-6-6-6-6-6-6-6-6-6-6-6-6-6-6-|--4-4-4-4-4-4-4-4-4-4-4-4-4-4-4-4-|
----------------------------------|----------------------------------|


  S S S S S S S S S S S S S S S S    S S S S S S S S S S S S S S S S  
----------------------------------|----------------------------------|
----------------------------------|----------------------------------|
--4-4-4-4-4-4-4-4-4-4-4-4-4-4-4-4-|--6-6-6-6-6-6-6-6-7-7-7-7---7-----|
--4-4-4-4-4-4-4-4-4-4-4-4-4-4-4-4-|--6-6-6-6-6-6-6-6-7-7-7-7---7-----|
--2-2-2-2-2-2-2-2-2-2-2-2-2-2-2-2-|--4-4-4-4-4-4-4-4-5-5-5-5---5-----|
----------------------------------|----------------------------------|


    S S S S S S S S S S S S S S S S    S S S S S S S S S S S S S S S S         
|-----------------------------------|-----------------------------------||----|
|-----------------------------------|-----------------------------------||----|
|*--8-8-8-4-4-4-6-6-6-------6-6-7-7-|--8-8-8-4-4-4-6-6-6-------7-7-7-7-*||----|
|*--8-8-8-4-4-4-6-6-6-6-6-6-6-6-7-7-|--8-8-8-4-4-4-6-6-6-6-6-6-7-7-7-7-*||----|
|---6-6-6-2-2-2-4-4-4-6-6-6-4-4-5-5-|--6-6-6-2-2-2-4-4-4-6-6-6-5-5-5-5--||----|
|---------------------4-4-4---------|--------------------4-4-4----------||----|


  E.  E.  E  E  E       S S S S S S S S S S S S S S S S    S S S S S S S S S S S S S S S S    
-------------------||-----------------------------------|-----------------------------------||
-------------------||-----------------------------------|-----------------------------------||
--4---6------6--7--||*--8-8-8-4-4-4-6-6-6-------6-6-7-7-|--8-8-8-4-4-4-6-6-6-------7-7-7-7-*||
--4---6---6--6--7--||*--8-8-8-4-4-4-6-6-6-6-6-6-6-6-7-7-|--8-8-8-4-4-4-6-6-6-6-6-6-7-7-7-7-*||
--2---4---6--4--5--||---6-6-6-2-2-2-4-4-4-6-6-6-4-4-5-5-|--6-6-6-2-2-2-4-4-4-6-6-6-5-5-5-5--||
----------4--------||---------------------4-4-4---------|--------------------4-4-4----------||




Duration Legend
---------------
W - whole
H - half
Q - quarter
E - 8th
S - 16th
T - 32nd
X - 64th
. - note dotted
|-n-|  - n-tuplets


Tablature Legend
----------------
L - tied note
x - dead note
g - grace note
(n) - ghost note
> - accentuded note
NH - natural harmonic
AH - artificial harmonic
TH - tapped harmonic
SH - semi harmonic
PH - pitch harmonic
h - hammer on
p - pull off
b - bend
br - bendRelease
pb - preBend
pbr - preBendRelease
brb - bendReleaseBend
\n/ - tremolo bar dip
\n - tremolo bar dive
-/n - tremolo bar Release up
/n\ - tremolo bar inverted dip
/n - tremolo bar return
-\n - tremolo bar Release down
S - shift slide
s - legato slide
/ -  slide into from below or out of upwards
\ -  slide into from above or out of downwards
~ - vibrato
W - wide vibrato
tr - trill
TP - tremolo picking
T - tapping
S - slap
P - pop
< - fade in
^ - brush up
v - brush down





Comments


Popular Nailpin tabs & chords
My Last Goodbye Chords
The Ending Chords
They Dont Know Tabs
What Are You Waiting For Tabs
What Are You Waiting For Intro Tabs
Worn Out Tabs
Worn Out Intro Tabs
My Last Goodbye Ukulele
The Ending Ukulele
This Coma Ukulele


Song lyrics



↑ Back to top | Tablatures and chords are parodies/interpretations of the original songs. You may use it for private study, scholarship, research or language learning purposes only
© 2014 AZChords.com Contact us | Privacy policy | DMCA | Add/correct tabs | Request tabs | Top 50 tabs