» » »

Mushroomhead, Kill Tomorrow Tabs (ver.2)

Artists:  A B C D E F G H I J K L M N O P Q R S T U V W X Y Z # 

Kill Tomorrow Tabs (ver.2)

Mushroomhead Tabs
Rating:
3/5 (2 votes)
Kill Tomorrow lessons Tabs too difficult? Try these video lessons and learn fast
                You MIGHT not think this tab is correct for 2 reasons. 1) It's organized for like a
6-string while Mushroomhead always uses those funky 7-strings. 2) I'm pretty sure
the entire XIII album is in drop B and I have no idea how tune mine to that, so I
don't know how it sounds. Still, the song sounds really really rad if u use a bunch
of distortion so I'd recommend that instead of just sitting in front of your computer
playin it clean.

-----------------------------------------------------------------------------
                         KILL TOMORROW - Mushroomhead
-----------------------------------------------------------------------------

Tuning:Drop B

Intro/Verse 1
|--------------------------------------------------------|
|--------------------------------------------------------|     X4
|--------------------------------------------------------|
|--12---12---12---12-12-----12---12---12-5-7-8-7-5-------|
|--12---12---12---12-12-----12---12---12-5-7-8-7-5-------|
|0-10-0-10-0-10-0-10-10---0-10-0-10-0-10-3-5-6-5-3-------|

Verse 2
|-------------------------------------------|
|-------------------------------------------|     X2
|-------------------------------------------|  
|-------------------------5-7-8-7-5---------|
|-------------------------5-7-8-7-5---------|  Listen to song for tempo and 
|-0000000000000000000000--3-5-6-5-3---------|  length of palm muted part
pm______________________

^Palm mute tempo changes second time^

Chorus
|-------------------------------------------|
|-------------------------------------------|     X2
|-----7*------------------------------------|
|-2*--7*--2*--10*-7*------------------------|
|-2*--5*--2*--10*-7*------------------------|
|-0*------0*--8*--5*------------------------|
*-Let ring

Then This Little Fill Part...
|-------------------------------------------|
|-------------------------------------------|     X1
|-------------------------------------------|
|-5-7-8-7-5---------------------------------|
|-5-7-8-7-5---------------------------------|
|-3-5-6-5-3---------------------------------|

Verse 2
|-------------------------------------------|
|-------------------------------------------|     X1
|-------------------------------------------|
|------------------------5-7-8-7-5----------|
|------------------------5-7-8-7-5----------|
|-0000000000000000000000-3-5-6-5-3----------|
pm______________________

Verse 1
|--------------------------------------------------------|
|--------------------------------------------------------|     X2
|--------------------------------------------------------|
|--12---12---12---12-12-----12---12---12-5-7-8-7-5-------|
|--12---12---12---12-12-----12---12---12-5-7-8-7-5-------|
|0-10-0-10-0-10-0-10-10---0-10-0-10-0-10-3-5-6-5-3-------|

Verse 2
|-------------------------------------------|
|-------------------------------------------|     X2
|-------------------------------------------|  
|-------------------------5-7-8-7-5---------|
|-------------------------5-7-8-7-5---------|  Listen to song for tempo and 
|-0000000000000000000000--3-5-6-5-3---------|  length of palm muted part
pm______________________

^Palm mute tempo changes second time^

Chorus
|-------------------------------------------|
|-------------------------------------------|     X2
|-----7*------------------------------------|
|-2*--7*--2*--10*-7*------------------------|
|-2*--5*--2*--10*-7*------------------------|
|-0*------0*--8*--5*------------------------|
*-Let ring

Bridge
|-------------------------------------------|
|-------------------------------------------|     X3
|-------------------------------------------|
|-8--7--11--10--XXX--8--7--11--10--XXXX-----|
|-8--7--11--10--XXX--8--7--11--10--XXXX-----|
|-6--5--9---8---XXX--6--5--9---8---XXXX-----|

Then play this
|-------------------------------------------|
|-------------------------------------------|     X1
|-------------------------------------------|
|-8--7--11--10--XXX----12---12---12---12-12-|
|-8--7--11--10--XXX----12---12---12---12-12-|
|-6--5--9---8---XXX--0-10-0-10-0-10-0-10-10-|


This part...
|-------------------------------------------|
|-------------------------------------------|     X1
|-------------------------------------------|
|---12---12---12-5-7-8-7-5------------------|
|---12---12---12-5-7-8-7-5------------------|
|-0-10-0-10-0-10-3-5-6-5-3------------------|


Verse 1
|--------------------------------------------------------|
|--------------------------------------------------------|     X1
|--------------------------------------------------------|
|--12---12---12---12-12-----12---12---12-5-7-8-7-5-------|
|--12---12---12---12-12-----12---12---12-5-7-8-7-5-------|
|0-10-0-10-0-10-0-10-10---0-10-0-10-0-10-3-5-6-5-3-------|

Verse 2
|-------------------------------------------|
|-------------------------------------------|     X2
|-------------------------------------------|  
|-------------------------5-7-8-7-5---------|
|-------------------------5-7-8-7-5---------|  Listen to song for tempo and 
|-0000000000000000000000--3-5-6-5-3---------|  length of palm muted part
pm______________________

^Palm mute tempo changes second time^


Congradulations! You can now play...well, not necessarily the best Mushroomhead song
on XIII but it is the raddest sounding one to play!

I would like to give some huge mongo credit to Jon K. on MxTabs because i couldn't
figure out some of the riffs and used his tabs to get me going. Thank you much!
=============================================================================
            
Submit corrections

comments powered by Disqus
↑ Back to top | Mushroomhead Tabs for Kill Tomorrow. Lyrics for acoustic guitar and electric guitar. Tablatures and chords are parodies/interpretations of the original songs. You may use it for private study, scholarship, research or language learning purposes only