» » »

Mushroomhead, Kill Tomorrow Tabs (ver.1)

Artists:  A B C D E F G H I J K L M N O P Q R S T U V W X Y Z # 

Kill Tomorrow Tabs (ver.1)

Mushroomhead Tabs
Rating:
3/5 (6 votes)
Kill Tomorrow lessons Tabs too difficult? Try these video lessons and learn fast
                Tuning: 7 String drop D but the 7 string isn't needed(AEADGBe)(drop A)

People've been putting crazy high notes in the intro, but I think it's a second guitar 
sum octave stuff that I'm not gunna tab, this is more then enough I think.

Intro
----------------------|
----------------------|
----------------------|
----------------------|
-0-2--0-2--0-2--0-2-2-|
-0-2--0-2--0-2--0-2-2-|
-0-2--0-2--0-2--0-2-2-|

--------------------------|
--------------------------|
--------------------------|
--------------------------|
-0-2--0-2--0-2--5-7-8-7-5-|
-0-2--0-2--0-2--5-7-8-7-5-|
-0-2--0-2--0-2--5-7-8-7-5-|

Verse part 1
------           |-----------|
------           |-----------|
------Play       |-----------|
------fast       |-----------|
------for a      |-5-7-8-7-5-|
------14         |-5-7-8-7-5-|
-2222-count then:|-5-7-8-7-5-|
 ....
Verse part 2(first part only the first time, and listen to timing)
------- |-------------           |-----------|
------- |-------------           |-----------|
------- |-------------           |-----------|
------- |-------------Play       |-----------|
------- |-------------for a      |-5-7-8-7-5-|
------- |-------------14         |-5-7-8-7-5-|
-22-2-2 |-22-22-2-2---count then:|-5-7-8-7-5-|
 .. . .   .. .. . .
Chorus(play around with strumming, this is just what I got)
-----------------------------|
-----------------------------|
-----------------------------|
--------7-77~----------------|
-2-22~--7-77~--2-22~--10~-7~-|
-2-22~--5-55~--2-22~--10~-7~-|
-2-22~---------2-22~--10~-7~-|

Post-Chorus(pause for about a 6 count first)
-----------     |------       |-----------|
-----------     |------       |-----------|
-----------     |------for a  |-----------|
-----------just |------6 count|-----------|
-5-7-8-7-5-once |------then:  |-5-7-8-7-5-|
-5-7-8-7-5-then:|------       |-5-7-8-7-5-|
-5-7-8-7-5-     |-2222-       |-5-7-8-7-5-|
                  ....
-play Intro
-play Verse part 1 then part 2
-play Chorus

Interlude
-------------------------------|
-------------------------------|
-------------------------------|
-------------------------------|
-8-7-9-7--2-2-2--8-7-9-7--2222-|
-8-7-9-7--2-2-2--8-7-9-7--2222-|
-8-7-9-7--2-2-2--8-7-9-7--2222-|
          . . .           ....
-play Intro
-play Verse part 1 then part 2
            

comments powered by Disqus
↑ Back to top | Mushroomhead Tabs for Kill Tomorrow. Lyrics for acoustic guitar and electric guitar. Tablatures and chords are parodies/interpretations of the original songs. You may use it for private study, scholarship, research or language learning purposes only