» » »

Mushroomhead, Just Pretending Tabs (ver.1)

Artists:  A B C D E F G H I J K L M N O P Q R S T U V W X Y Z # 

Just Pretending Tabs (ver.1)

Mushroomhead Tabs
 Rating:
4.3/5 (6 votes)
Just Pretending lessons Tabs too difficult? Try these video lessons and learn fast
1
                Just Pretending from Mushroomhead
Tuning: Bb-Eb-Ab-Db-Gb-Bb-Eb

"." means Palm Mute

Intro/Verse
--------------------------|
--------------------------|
--------------------------|
--------------------------|x3
-7---7---7-----7---7---7--|
---5---5---5-8---8---8----|
--------------------------|
..........................
Then this once, and repeat from start:
--------------------------|
--------------------------|
--------------------------|
--------------------------|
--------------------------|
---7---7---7---7---7---7--|
-5---5---5---5---5---5----|
..........................
Chorus
------------------|
------------------|
------------------|
-7-77-7-10-1010---|x3
-7-77-7-10-1010---|
-5-55-5-8--8-8----|
------------------|
Then this once and repeat from start:
--------------------|
--------------------|
--------------------|
--------------------|
-77-7-7-77-7-7------|
-77-7-7-77-7-7------|
-55-5-5-55-5-5------|
-Verse
-Chorus

Interlude 1
-------------------------------------------------------|
-------------------------------------------------------|
-------------------------------------------------------|
-------------------------7-77-7-10-1010-7-77-7-10-1010-|
-10-1010-8-88-7-77-8-88--7-77-7-10-1010-7-77-7-10-1010-|
-8--8-8--8-88-8-88-8-88--5-55-5-8--8-8--5-55-5-8--8-8--|
-------------------------------------------------------|
Interlude 2
---------------------------------|
---------------------------------|
---------------------------------|
---------------------------------|
-77------77------77------77------|
-77-7777-77-7777-77-7777-77-7777-|
-55-5555-55-5555-55-5555-55-5555-|
    ....    ....    ....    ....
-Chorus
-Interlude 1
            
Submit corrections

comments powered by Disqus
↑ Back to top | Mushroomhead Tabs for Just Pretending. Lyrics for acoustic guitar and electric guitar. 1 Tablatures and chords are parodies/interpretations of the original songs. You may use it for private study, scholarship, research or language learning purposes only