» » »

Just Pretending Tabs (ver.2)

Artists:  A B C D E F G H I J K L M N O P Q R S T U V W X Y Z # 

Just Pretending Tabs (ver.2)

Mushroomhead
Rating:
0/5 (0 votes)

Hard to play? Try these video lessons and learn fast.
                Intro. and Verses (Palm Muted)
D--------------------------------------------------------------------------|
A--------------------------------------------------------------------------|
F--------------------------------------------------------------------------|
C-3-3-3-3---3-3-3-3-3-3-3-3---3-3-3-3-3-3-3-3---3-3-3-3--------------------|
G--1-1-1-1-4-4-4-4---1-1-1-1-4-4-4-4---1-1-1-1-4-4-4-4--3-3-3-3-3-3-3-3----|
C--------------------------------------------------------3-3-3-3-3-3-3-3---|

Chorus (let ring)
D--------------------------------------------------------------------------|
A--------------------------------------------------------------------------|
F-33-3--66-6--33-3--66-6--33-3--66-6---------------------------------------|
C-33-3--66-6--33-3--66-6--33-3--66-6-3-3333-3-3333-------------------------|
G-11-1--44-4--11-1--44-4--11-1--44-4-3-3333-3-3333-------------------------|
C------------------------------------3-3333-3-3333-------------------------|

Interlude (let ring)
D--------------------------------------------------------------------------|
A--------------------------------------------------------------------------|
F--------------------------------------------------------------------------|
C-3-3333-6-6666-4-4444-3-3333-33-3-66-6-33-3-66-6--------------------------|
G-4-4444-4-4444-4-4444-4-4444-11-1-44-4-11-1-44-4--------------------------|
C--------------------------------------------------------------------------|

As They start singing (are we really that far...)*=palm mute
D--------------------------------------------------------------------------|
A--------------------------------------------------------------------------|
F--------------------------------------------------------------------------|
C-3-3333-3-3333-3-3333-3-3333----------------------------------------------|
G-3-3333-3-3333-3-3333-3-3333--repeat--------------------------------------|
C-3-3333-3-3333-3-3333-3-3333----------------------------------------------|
    ****   ****   ****   ****
My First Tab so please rate
            
Hard to play? Try these video lessons and learn fast. | Correct




comments powered by Disqus
↑ Back to top | Tablatures and chords are parodies/interpretations of the original songs. You may use it for private study, scholarship, research or language learning purposes only