>
 >
Dream Is Over 2

Dream Is Over 2 Guitar Tabs

Mushroomhead - Dream Is Over 2 chords, tabs, tablatures, lyrics

Guitar lessons | Add/correct | Request | Top 50 tabs Artists:  A B C D E F G H I J K L M N O P Q R S T U V W X Y Z 0-9

Dream Is Over 2 Guitar Tabs – Mushroomhead

CD, Sheet music, Poster

Do you like Dream Is Over 2? Share with your friends now
Bass TabsTabsTabs v2Tabs v3




Tuning: A#/Bb Standard (Mushroomhead uses 7-strings, but its possible to play this song 
without the high E)



Main riff
Eb|----------------|
Bb|----------------|
Gb|----------------|
Db|----------------|
Ab|-3-3---3-3--x-x-|
Eb|-3-3---3-3--x-x-|
Bb|-1-1---1-1--x-x-|
     pm

Verse
Eb|---------|-----------------------------|
Bb|---Only--|-----------------------------|
Gb|--Played-|-----------------------------|
Db|---Once--|-----------------------------|
Ab|---------|-----------------------------|
Eb|---------|-----------------------------|
Bb|-0-0-0-0-|-0-0-0-0---0-0-0-0-0-0-0-0---|
   pm-------------------------------------|


Chorus
Eb|-------------------------------|
Bb|-------------------------------|
Gb|-------------------------------|
Db|-------------------------------|
Ab|-------------------------8~~---|
Eb|-2-2-2-2-----2-2-2-2--2--6~~---|
Bb|-0-0-0-0-----0-0-0-0--0--6~~---|
   pm-----------------------------|

-Main riff
-Verse

Interlude
Eb|-------------------------------|
Bb|-------------------------------|
Gb|-------------------------------|
Db|-------------------------------|
Ab|--------5-------4-------3------|
Eb|-2-4-3--3--2-4--2--2-3--1--2-4-|
Bb|-0-2-1-----0-2-----0-1-----0-2-|


-Main riff
-Verse
Chorus
-Main riff

And that's it





Comments


Popular Mushroomhead tabs & chords
Sun Doesnt Rise Bass Tabs
These Filthy Hands Bass Tabs
Wrist Bass Tabs
Almost Gone Tabs
Born Of Desire Tabs
Dream Is Over Tabs
Our Own Way 1 Tabs
The New Cult King 1 Tabs
These Filthy Hands 2 Tabs
War Inside Tabs


Song lyrics



↑ Back to top | Tablatures and chords are parodies/interpretations of the original songs. You may use it for private study, scholarship, research or language learning purposes only
© 2014 AZChords.com Contact us | Privacy policy | DMCA | Add/correct tabs | Request tabs | Top 50 tabs