» » »

Mushroomhead, Dream Is Over Tabs (ver.2)

Artists:  A B C D E F G H I J K L M N O P Q R S T U V W X Y Z # 

Dream Is Over Tabs (ver.2)

Mushroomhead Tabs
Rating:
1/5 (1 vote)
Dream Is Over lessons Tabs too difficult? Try these video lessons and learn fast
                Album XIII
Tuning:(7 string) A,E,A,D,F#,B,e

Key: x = raked or muted string
     . = Palm Mute

Intro/Chorus:[0:00]
[------------]
[------------]
[------------]
[------------]x8
[------------]
[-2—-2-2-2-2-]
[-2—-2-2-2-2-]
pm.      . .

Verse:[0:14]                       [0:27]
[-----------------------]  Then   [-----------------------]
[-----------------------]         [-----------------------]
[-----------------------]         [-----------------------]
[-----------------------]x8       [---------------------2-]x8
[-----------------------]         [---------------------2-]
[-----------------------]         [-------------------x-0-]
[-1-1-1--1-1-1--1-1-1-1-]         [-1-1-1-1--1-1-1-1--x---]
pm. . .  . . .  . . . .             . . . .  . . . .

Pre-Chorus:[0:41]
[------------]
[------------]
[------------]
[------------]x8
[------------]
[------------]
[-2—-2-2-2-2-]
pm.      . .

Chorus:[0:48]
[------------]
[------------]
[------------]
[------------]x4
[------------]
[-2—-2-2-2-2-]
[-2—-2-2-2-2-]
pm.      . .

Verse:[0:54]                       [1:08]
[-----------------------]  Then   [-----------------------]
[-----------------------]         [-----------------------]
[-----------------------]         [-----------------------]
[-----------------------]x8       [---------------------2-]x8
[-----------------------]         [---------------------2-]
[-----------------------]         [-------------------x-0-]
[-1-1-1--1-1-1--1-1-1-1-]         [-1-1-1-1--1-1-1-1--x---]
pm. . .  . . .  . . . .             . . . .  . . . .

Bridge:[1:22]
[------------------------------------]
[------------------------------------]
[------------------------------------]
[------------------------------------]x4
[-3--2--1--9--2--1--8--2--1--7--2--1-]
[-3--2--1--9--2--1--8--2--1--7--2--1-]
[-3--2--1--9--2--1--8--2--1--7--2--1—]
pm.  .  .  .  .  .  .  .  .  .  .  .

No Palm Muting
[------------------------------------]
[------------------------------------]
[------------------------------------]
[------------------------------------]x4
[-3--2--1--9--2--1--8--2--1--7--2--1-]
[-3--2--1--9--2--1--8--2--1--7--2--1-]
[-3--2--1--9--2--1--8--2--1--7--2--1—]

Pre-Chorus:[1:49]
[------------]
[------------]
[------------]
[------------]x8
[------------]
[------------]
[-2—-2-2-2-2-]
pm.      . .


Chorus:[1:56]
[------------]
[------------]
[------------]
[------------]x4
[------------]
[-2—-2-2-2-2-]
[-2—-2-2-2-2-]
pm.      . .

Verse:[2:03]                       [2:17]
[-----------------------]  Then   [-----------------------]
[-----------------------]         [-----------------------]
[-----------------------]         [-----------------------]
[-----------------------]x8       [---------------------2-]x8
[-----------------------]         [---------------------2-]
[-----------------------]         [-------------------x-0-]
[-1-1-1--1-1-1--1-1-1-1-]         [-1-1-1-1--1-1-1-1--x---]
pm. . .  . . .  . . . .             . . . .  . . . .

Chorus:[2:30]             [2:57]
[------------]  End with  [---]
[------------]            [---]
[------------]            [---]
[------------]x16         [---]
[------------]            [---]
[-2—-2-2-2-2-]            [-2-]
[-2—-2-2-2-2-]            [-2-]
pm.      . .
_______________________________________________________________________

Tuning:(6 String) A,E,A,D,F#,B

Intro/Chorus:[0:00]
[------------]
[------------]
[------------]x8
[------------]
[-2—-2-2-2-2-]
[-2—-2-2-2-2-]
pm.      . .

Verse:[0:14]                       [0:27]
[-----------------------]  Then   [-----------------------]
[-----------------------]         [-----------------------]
[-----------------------]x8       [---------------------2-]x8
[-----------------------]         [---------------------2-]
[-----------------------]         [-------------------x-0-]
[-1-1-1--1-1-1--1-1-1-1-]         [-1-1-1-1--1-1-1-1--x---]
pm. . .  . . .  . . . .             . . . .  . . . .

Pre-Chorus:[0:41]
[------------]
[------------]
[------------]x8
[------------]
[------------]
[-2—-2-2-2-2-]
pm.      . .

Chorus:[0:48]
[------------]
[------------]
[------------]x4
[------------]
[-2—-2-2-2-2-]
[-2—-2-2-2-2-]
pm.      . .

Verse:[0:54]                       [1:08]
[-----------------------]   Then  [-----------------------]
[-----------------------]         [-----------------------]
[-----------------------]x8       [---------------------2-]x8
[-----------------------]         [---------------------2-]
[-----------------------]         [-------------------x-0-]
[-1-1-1--1-1-1--1-1-1-1-]         [-1-1-1-1--1-1-1-1--x---]
pm. . .  . . .  . . . .             . . . .  . . . .

Bridge:[1:22]
[------------------------------------]
[------------------------------------]
[------------------------------------]x4
[-3--2--1--9--2--1--8--2--1--7--2--1-]
[-3--2--1--9--2--1--8--2--1--7--2--1-]
[-3--2--1--9--2--1--8--2--1--7--2--1—]
pm.  .  .  .  .  .  .  .  .  .  .  .

No Palm Muting
[------------------------------------]
[------------------------------------]
[------------------------------------]x4
[-3--2--1--9--2--1--8--2--1--7--2--1-]
[-3--2--1--9--2--1--8--2--1--7--2--1-]
[-3--2--1--9--2--1--8--2--1--7--2--1—]

Pre-Chorus:[1:49]
[------------]
[------------]
[------------]x8
[------------]
[------------]
[-2—-2-2-2-2-]
pm.      . .


Chorus:[1:56]
[------------]
[------------]
[------------]x4
[------------]
[-2—-2-2-2-2-]
[-2—-2-2-2-2-]
pm.      . .

Verse:[2:03]                       [2:17]
[-----------------------]  Then   [-----------------------]
[-----------------------]         [-----------------------]
[-----------------------]x8       [---------------------2-]x8
[-----------------------]         [---------------------2-]
[-----------------------]         [-------------------x-0-]
[-1-1-1--1-1-1--1-1-1-1-]         [-1-1-1-1--1-1-1-1--x---]
pm. . .  . . .  . . . .             . . . .  . . . .

Chorus:[2:30]             [2:57]
[------------]  End with  [---]
[------------]            [---]
[------------]x16         [---]
[------------]            [---]
[-2—-2-2-2-2-]            [-2-]
[-2—-2-2-2-2-]            [-2-]
pm.      . .
            

comments powered by Disqus
↑ Back to top | Mushroomhead Tabs for Dream Is Over. Lyrics for acoustic guitar and electric guitar. Tablatures and chords are parodies/interpretations of the original songs. You may use it for private study, scholarship, research or language learning purposes only