>
 >
Sunburn With Piano

Sunburn With Piano Guitar Tabs

Muse - Sunburn With Piano chords, tabs, tablatures, lyrics

Guitar lessons | Add/correct | Request | Top 50 tabs Artists:  A B C D E F G H I J K L M N O P Q R S T U V W X Y Z 0-9

Sunburn With Piano Guitar Tabs – Muse

CD, Sheet music, Poster

Do you like Sunburn With Piano? Share with your friends now
Tabs
Muse - Sunburn

standard tuning, piano arranged for guitar

Chords used:
Em - x x 9 9 8 7,  Am add9 - x x 7 5 5 7,  C - x x 10 9 8 8
Am6 - x 0 4 5 5 x, Am7 - x 0 5 5 5 x, Em* - 0 x 5 4 5 x
E - x 7 9 9 9 x

Intro
E---7-----7---------7-----7----------8-----8---------7-----7--------|
B-----8-----8---8-----5-----5---5------8-----8---8-----5-----5---5--|
G-------9-----9---------5-----5----------9-----9---------5-----5----|
D-9---------------7---------------10---------------7----------------|
A-------------------------------------------------------------------|
E-------------------------------------------------------------------| x2

Verse
E---7-----7---------7-----7----------8-----8---------7-----7--------|
B-----8-----8---8-----5-----5---5------8-----8---8-----5-----5---5--|
G-------9-----9---------5-----5----------9-----9---------5-----5----|
D-9---------------7---------------10---------------7----------------|
A-------------------------------------------------------------------|
E-------------------------------------------------------------------|
  come waste your millions here                      secretly

E---7-----7---------7-----7----------8-----8---------7-----7--------|
B-----8-----8---8-----5-----5---5------8-----8---8-----5-----5---5--|
G-------9-----9---------5-----5----------9-----9---------5-----5----|
D-9---------------7---------------10---------------7----------------|
A-------------------------------------------------------------------|
E-------------------------------------------------------------------|
    she   sneers

E---7-----7---------7-----7----------8-----8---------7-----7--------|
B-----8-----8---8-----5-----5---5------8-----8---8-----5-----5---5--|
G-------9-----9---------5-----5----------9-----9---------5-----5----|
D-9---------------7---------------10---------------7----------------|
A-------------------------------------------------------------------|
E-------------------------------------------------------------------|

E---7-----7---------7-----7----------8-----8---------7-----7--------|
B-----8-----8---8-----5-----5---5------8-----8---8-----5-----5---5--|
G-------9-----9---------5-----5----------9-----9---------5-----5----|
D-9---------------7---------------10---------------7----------------|
A-------------------------------------------------------------------|
E-------------------------------------------------------------------|
    another corporate show                         a guilty con-

E---7-----7---------7-----7----------8-----8---------7-----7--------|
B-----8-----8---8-----5-----5---5------8-----8---8-----5-----5---5--|
G-------9-----9---------5-----5----------9-----9---------5-----5----|
D-9---------------7---------------10---------------7----------------|
A-------------------------------------------------------------------|
E-------------------------------------------------------------------|
   science    grows                                   I'll

E----12-------12------------12------14-12----12----15------17-15---------12-------14-12---12-|
B-------12-------12----12------13---------13----------17---------19-17------13----------13---|
G----------12-------12------------14----------------------17--------------------14-----------|
D-14---------------------12---------------------15---------------------12--------------------|
A--------------------------------------------------------------------------------------------|
E--------------------------------------------------------------------------------------------|
  feel                                                             a guilty      con-
(Verse 3)  Come  let         the   truth       be       shared

E----12-------12------------12------14-12----12----15------17-15---------12-------14-12---12-|
B-------12-------12----12------13---------13----------17---------19-17------13----------13---|
G----------12-------12------------14----------------------17--------------------14-----------|
D-14---------------------12---------------------15---------------------12--------------------|
A--------------------------------------------------------------------------------------------|
E--------------------------------------------------------------------------------------------|
  science           grows                                        and    i'll         feel
(V 3) no one       ever             dared                               to       break

E----12-------12------------12------14-12----12----15------17-15---------12-------14-12---12-|
B-------12-------12----12------13---------13----------17---------19-17------13----------13---|
G----------12-------12------------14----------------------17--------------------14-----------|
D-14---------------------12---------------------15---------------------12--------------------|
A--------------------------------------------------------------------------------------------|
E--------------------------------------------------------------------------------------------|
                                                                  a guilty      con-
(V 3)  these                 endless              lies                secretly

E----12-------12------------12------14-12----12----15------17-15---------12-------14-12---12-|
B-------12-------12----12------13---------13----------17---------19-17------13----------13---|
G----------12-------12------------14----------------------17--------------------14-----------|
D-14---------------------12---------------------15---------------------12--------------------|
A--------------------------------------------------------------------------------------------|
E--------------------------------------------------------------------------------------------|
  science           grow
(V 3)    she    cried

E-------------------------------------------------------------|
B--5-5-5-5-x-5--5-5-5---5-5-5-5-x-5-5-5-5--5-5-5-5-x-5-5-5-5--|
G--5-5-5-5-x-5--5-5-5---4-4-4-4-x-4-4-4-4--5-5-5-5-x-5-5-5-5--|
D--4-4-4-4-x-4--5-5-5---5-5-5-5-x-5-5-5-5--4-4-4-4-x-4-5-5-5--|
A--0-0-0-0-x-0--0-0-0---x-x-x-x-x-x-x-x-x--0-0-0-0-x-0-0-0-0--|
E-----------------------0-0-0-0-x-0-0-0-0---------------------|
         she burns        like the sun       and i cant look

E----------------------------------------|
B--5-5-5-5-x-5-5-5-5--5-5-5-5-x-5-5-5-5--|
G--4-4-4-4-x-4-4-4-4--5-5-5-5-x-5-5-5-5--|
D--5-5-5-5-x-5-5-5-5--4-4-4-4-x-4-5-5-5--|
A--x-x-x-x-x-x-x-x-x--0-0-0-0-x-0-0-0-0--|
E--0-0-0-0-x-0-0-0-0---------------------|
      away               and she'll burn

E------------------------------------------------------------|
B--5-5-5-5-x-5-5-5-5--5-5-5-5-x-5-5-5-5--5-5-5-5-x-5-5-5-5---|
G--4-4-4-4-x-4-4-4-4--5-5-5-5-x-5-5-5-5--4-4-4-4-x-4-4-4-4---|
D--5-5-5-5-x-5-5-5-5--4-4-4-4-x-4-5-5-5--5-5-5-5-x-5-5-5-5---|
A--x-x-x-x-x-x-x-x-x--0-0-0-0-x-0-0-0-0--x-x-x-x-x-x-x-x-x---|
E--0-0-0-0-x-0-0-0-0---------------------0-0-0-0-x-0-0-0-0---|
        our horizons        make no  mistakes

E-------------------10-11-12-11-10--------------------------------10-11-12-11-10---------------|
B-11-12-11-10-11-12---------------12-11-10-11-10-11h12-11-10-11-12--------------12-11-10-11-10-|
G----------------------------------------------------------------------------------------------|
D----------------------------------------------------------------------------------------------|
A----------------------------------------------------------------------------------------------|
E----------------------------------------------------------------------------------------------|

E------------------10-11-12-11-10--------------10-11-12-11-10--------------------------10-11---|
B-11h12-11-10-11-12--------------12-11-10-11-12--------------12-11-10-11-12-11-10-11-12--------|
G----------------------------------------------------------------------------------------------|
D----------------------------------------------------------------------------------------------|
A----------------------------------------------------------------------------------------------|
E----------------------------------------------------------------------------------------------|

play these 2 bits twice

then verse 3 above

Solo-tremelo pick (with echo & pitch shift pedal) trem pick=strike notes v fast
E--12--------------12----------------12----------------12---------|
B---x---------------x-----------------x-----------------x---------|
G---9---------------9-----------------9-----------------9---------|
D-----------------------------------------------------------------|
A-----------------------------------------------------------------|
E-----------------------------------------------------------------|
   gradually bringing up pedal 2 octaves

pedal up 2 octaves (still trem picking)
E--12------12---15---14---14---12---11------11----8----7------|
B---x-------x----x----x---------------------------------------|
G---9-------9---12---11---11----9----8-------8----5----4------|
D-------------------------------------------------------------|
A-------------------------------------------------------------|
E-------------------------------------------------------------|

(still trem picking)
E-----------------------------------------------------|
B-----------------------------------------------------|
G------9-----9---12----11----11-----9----8---5----4---|
D-----------------------------------------------------|
A--(2)/7-----7---10-----9-----9-----7----6---3----2---|
E-----------------------------------------------------|

End Chorus
E-------------------------------------------------------------|
B--5-5-5-5-x-5--5-5-5---5-5-5-5-x-5-5-5-5--5-5-5-5-x-5-5-5-5--|
G--5-5-5-5-x-5--5-5-5---4-4-4-4-x-4-4-4-4--5-5-5-5-x-5-5-5-5--|
D--4-4-4-4-x-4--5-5-5---5-5-5-5-x-5-5-5-5--4-4-4-4-x-4-5-5-5--|
A--0-0-0-0-x-0--0-0-0---x-x-x-x-x-x-x-x-x--0-0-0-0-x-0-0-0-0--|
E-----------------------0-0-0-0-x-0-0-0-0---------------------|
      and i'll hide          from the world      behind  a bro-

E----------------------------------------|
B--5-5-5-5-x-5-5-5-5--5-5-5-5-x-5-5-5-5--|
G--4-4-4-4-x-4-4-4-4--5-5-5-5-x-5-5-5-5--|
D--5-5-5-5-x-5-5-5-5--4-4-4-4-x-4-5-5-5--|
A--x-x-x-x-x-x-x-x-x--0-0-0-0-x-0-0-0-0--|
E--0-0-0-0-x-0-0-0-0---------------------|
   -ken frame              and i'll run

E------------------------------------------------------------|
B--5-5-5-5-x-5-5-5-5--5-5-5-5-x-5-5-5-5--5-5-5-5-x-5-5-5-5---|
G--4-4-4-4-x-4-4-4-4--5-5-5-5-x-5-5-5-5--4-4-4-4-x-4-4-4-4---|
D--5-5-5-5-x-5-5-5-5--4-4-4-4-x-4-5-5-5--5-5-5-5-x-5-5-5-5---|
A--x-x-x-x-x-x-x-x-x--0-0-0-0-x-0-0-0-0--x-x-x-x-x-x-x-x-x---|
E--0-0-0-0-x-0-0-0-0---------------------0-0-0-0-x-0-0-0-0---|
      forever             i can't face     the    shame

(trem pick again!)
E-------------------------------------------------------------|
B--10-------------12------------------------------------------|
G-------------------------------------------------------------|
D---7--------------9------------------------------------------|
A-------------------------------------------------------------|
E-------------------------------------------------------------|
 and i'll hide   from the world

E-------------------------------------------------------------|
B---13--------12-----------13---------------------------------|
G-------------------------------------------------------------|
D---10---------9-----------10---------------------------------|
A-------------------------------------------------------------|
E-------------------------------------------------------------|
   behind a broken frame    and i'll run

E-------------------------------------------------------------|
B--12-----14------------15------------------------------------|
G-------------------------------------------------------------|
D---9-----11------------12------------------------------------|
A-------------------------------------------------------------|
E-------------------------------------------------------------|
  forever   i can't face   the shame

to finish, improvise around   E - x 7 9 9 9 x  &  Em - x x 9 9 8 7





Comments


Popular Muse tabs & chords
Fury 1 Bass Tabs
Futurism 2 Bass Tabs
Big Freeze Tabs
Easily 1 Tabs
Glorious 2 Tabs
House Of The Rising Sun 1 Tabs
Map Of The Problematique 2 Tabs
Stockholm Syndrome 1 Tabs
Citizen Erased Ukulele
Easily Ukulele


Song lyrics



↑ Back to top | Tablatures and chords are parodies/interpretations of the original songs. You may use it for private study, scholarship, research or language learning purposes only
© 2014 AZChords.com Contact us | Privacy policy | DMCA | Add/correct tabs | Request tabs | Top 50 tabs