» » »

Please Let Me Get What I Want Bass tabs (ver.1)

Artists:  A B C D E F G H I J K L M N O P Q R S T U V W X Y Z # 

Please Let Me Get What I Want Bass tabs (ver.1)

Muse
Rating:
0/5 (0 votes)

Hard to play? Try these video lessons and learn fast.
                Muse
Please, Please, Please Let Me Get What I Want
Smiths Cover

        A            E            A            E          
G|----------------------------------------------------
D|----------------------------------------------------
A|----------------------------------------------------
E|-5-5-5-5-5-5--0-0-0-0-0-0--5-5-5-5-5-5--0-0-0-0-0-0-

        C#           D            E         A     E
G|----------------------------------------------------
D|----------------------------------------------------
A|-4-4-4-4-4-4--5-5-5-5-5-5--7-7-7-7-7-7--------------
E|----------------------------------------5-5-5-0-0-0-


        D            E         A     Ab        A
G|----------------------------------------------------
D|----------------------------------------------------
A|-5-5-5-5-5-5----------------------------------------
E|--------------0-0-0-0-0-0--5-5-5-4-4-4--5-5-5-5-5-5-

        A            E         A     Ab        A      
G|----------------------------------------------------
D|----------------------------------------------------
A|----------------------------------------------------
E|-5-5-5-5-5-5--0-0-0-0-0-0--5-5-5-4-4-4--5-5-5-5-5-5-

        A            E
G|----------------------------------------------------
D|----------------------------------------------------
A|----------------------------------------------------
E|-5-5-5-5-5-5--0-0-0-0-0-0---------------------------
            
Hard to play? Try these video lessons and learn fast. | Correct




comments powered by Disqus
↑ Back to top | Tablatures and chords are parodies/interpretations of the original songs. You may use it for private study, scholarship, research or language learning purposes only